Oops, an error
Loading. Please wait.

Meticulous Invagination Bass Tab

version 1
version 1

Whole song

Interactive

1,104 views 3 this week
no commentswrite comment
1 2 3 4 5
3 more votes to show rating
add to favorites
launch autoscroll
font size
0
reset
guitar tuner
Autoscroll
slow
fast
+/-
esc
set tempo
stop
Help us to improve Ultimate-Guitar.com Take our survey!
×
                           Methiculous Invagination                             


                                                                         Aborted
Spår 3



         |-3-|    |-3-|                   |-3-|    |-3-|                
      E  S S S E  S S S E  E  E  E     E  S S S E  S S S E  E  E  E     
D||---------------------------------|---------------------------------||
A||*--------------------------------|--------------------------------*||
E||*--1-----------------------------|--1-----------------2--3--6--3--*||
B||------0-0-0-0--0-0-0-0--1--4--1--|-----0-0-0-0--0-0-0--------------||


  |-3-|        |-3-|    |-3-|       |-3-|        |-3-|    |-3-|     
  S S S Q.     S S S E  S S S E     S S S Q.     S S S E  S S S E   
---------------------------------|---------------------------------|
---------------------------------|---------------------------------|
---------------------------------|---------------------------------|
--0-0-0--------0-0-0----0-0-0----|--0-0-0--------0-0-0----0-0-0----|


  |-3-|        |-3-|    |-3-|       |-3-|        |-3-|    |-3-|     
  S S S Q.     S S S E  S S S E     S S S Q.     S S S E  S S S E   
---------------------------------|---------------------------------|
---------------------------------|---------------------------------|
---------------------------------|---------------------------------|
--5-5-5--------5-5-5----5-5-5----|--3-3-3--------3-3-3----3-3-3----|


    S S S S S S S S S S S S S S S S    S S S S S S S S S S S S S S S S  
|-----------------------------------|----------------------------------|
|*----------------------------------|----------------------------------|
|*--------------------------3-0-5-0-|--------------------------3-0-5-0-|
|---1-0-2-0-5-0-3-0-2-0-3-0---------|--1-0-2-0-5-0-3-0-2-0-3-0---------|


  S S S S S S S S S S S S S S S S    E  E  E  E  E  E  E  E   
----------------------------------|--------------------------|
----------------------------------|--------------------------|
--------------------------3-0-5-0-|--------2--0--3--0--5--0--|
--1-0-2-0-5-0-3-0-2-0-3-0---------|--0--0--------------------|


     |-3-|    |-3-|    |-3-|    |-3-|    
  E  S S S E  S S S E  S S S E  S S S  3x
---------------------------------------||
--------------------------------------*||
--6--------6--------5--------3--------*||
-----4-4-4----4-4-4----3-3-3----1-1-1--||


        |-3-|      |-3-|      |-3-|      |-3-|  
   S  S S S S S  S S S S S  S S S S S  S S S S  
-----------------------------------------------|
*----------------------------------------------|
*-------------2S-1------------------4S-3-------|
---1S-0-0-0-0------0-0-0-1S-0-0-0-0------0-0-0-|


       |-3-|      |-3-|                  
  S  S S S S S  S S S S S  S S S S S E   
----------------------------------------|
----------------------------------------|
-------------2S-1-----------------------|
--1S-0-0-0-0------0-0-0-1S-0-0-0-0-0-4--|


       |-3-|      |-3-|      |-3-|      |-3-|  
  S  S S S S S  S S S S S  S S S S S  S S S S  
----------------------------------------------|
----------------------------------------------|
-------------2S-1------------------4S-3-------|
--1S-0-0-0-0------0-0-0-1S-0-0-0-0------0-0-0-|


       |-3-|      |-3-|                                                
  S  S S S S S  S S S S S  S S S S S S S      E  E  E  E  E  E  E  E   
------------------------------------------||--------------------------|
-----------------------------------------*||--------------------------|
-------------2S-1------------------------*||--------------------------|
--1S-0-0-0-0------0-0-0-1S-0-0-0-0-0-0-0--||--0--0--1--0--4--0--3--0--|


  E  E  E  E  E  E  E  E     E  E  E  E  E  E  E  E   
--------------------------|--------------------------|
--------------------------|--------------------------|
--------2--0--3--0--5--6--|--------------------------|
--0--0--------------------|--0--0--1--0--4--0--3--0--|


                                |-3-|    |-3-|    |-3-|    |-3-|  
  E  E  E  E  E  E  E  E     E  S S S E  S S S E  S S S E  S S S  
--------------------------|--------------------------------------|
--------------------------|--------------------------------------|
--------2--0--3--0--5--0--|--6--------6--------5--------3--------|
--0--0--------------------|-----4-4-4----4-4-4----3-3-3----1-1-1-|


       |-3-| |-3-| |-3-| |-3-| |-3-| |-3-| |-3-|  
    E  S S S S S S S S S S S S S S S S S S S S S  
|------------------------------------------------|
|*--1--------------------------------------------|
|*-----0-0-0-0-0-0-0-0-0-0-0-0-1-1-1-4-4-4-1-1-1-|
|------------------------------------------------|


     |-3-| |-3-| |-3-| |-3-| |-3-| |-3-| |-3-|    
  E  S S S S S S S S S S S S S S S S S S S S S    
------------------------------------------------||
--1--------------------2-2-2-3-3-3-6-6-6-3-3-3-*||
-----0-0-0-0-0-0-0-0-0-------------------------*||
------------------------------------------------||


      |-3-|    |-3-| |-3-| |-3-| |-3-| |-3-|  
   E  S S S E  S S S S S S S S S S S S S S S  
---------------------------------------------|
*--------------------------------------------|
*--1-----------------------------------------|
------0-0-0-0--0-0-0-0-0-0-1-1-1-4-4-4-1-1-1-|


     |-3-|    |-3-| |-3-| |-3-| |-3-| |-3-|                            
  E  S S S E  S S S S S S S S S S S S S S S      H        E  E  E  E   
---------------------------------------------||-----------------------|
--------------------------------------------*||-----------------------|
--1-----------------2-2-2-3-3-3-6-6-6-3-3-3-*||--------------1--------|
-----0-0-0-0--0-0-0--------------------------||--------------------3--|


                                   S                  
  E  Q.     E  E  E  E       E  E  E  E  E  E  E  E   
------------------------||---------------------------|
------------------------||*--------------------------|
------------------------||*--------1-----------------|
--4---------4--3--1--3--||---0--1-----0--1--3--0--1--|


        S                                                                     
  E  E  E  E  E  E  E  E       H        E  E  E  E     E  Q.     E  E  E  E   
---------------------------||-----------------------|------------------------|
--------------------------*||-----------------------|------------------------|
--------1-----------------*||--------------1--------|------------------------|
--0--1-----0--4--3--1--3---||--------------------3--|--4---------4--3--1--3--|


    E  E  E  E  E  E  E  E     E  E  E  E  E  E  E  E     
|---------------------------|---------------------------||
|*--------------------------|--------------------------*||
|*--------3--------4--------|--------3-----------------*||
|---2--3-----2--3-----2--5--|--2--3-----2--6--5--3--5---||


         S                          S                    
   E  E  E  E  E  E  E  E     E  E  E  E  E  E  E  E     
---------------------------|---------------------------||
*--------------------------|--------------------------*||
*--------1-----------------|--------1-----------------*||
---0--1-----0--1--3--0--1--|--0--1-----0--4--3--1--3---||


   |-3-| |-3-| |-3-| |-3-| |-3-| |-3-| |-3-| |-3-|  
   S S S S S S S S S S S S S S S S S S S S S S S S  
---------------------------------------------------|
*--------------------------------------------------|
*--------------------------------------------------|
---0-0-0-0-0-0-0-0-0-0-0-0-0-0-0-0-0-0-0-0-0-0-0-0-|


  |-3-| |-3-| |-3-| |-3-| |-3-| |-3-| |-3-| |-3-|  
  S S S S S S S S S S S S S S S S S S S S S S S S  
--------------------------------------------------|
--------------------------------------------------|
--7-7-7-7-7-7-7-7-7-7-7-7-7-7-7-7-7-7-7-7-7-7-7-7-|
--------------------------------------------------|


  |-3-| |-3-| |-3-| |-3-| |-3-| |-3-| |-3-| |-3-|  
  S S S S S S S S S S S S S S S S S S S S S S S S  
--------------------------------------------------|
--------------------------------------------------|
--5-5-5-5-5-5-5-5-5-5-5-5-5-5-5-5-5-5-5-5-5-5-5-5-|
--------------------------------------------------|


  |-3-| |-3-| |-3-| |-3-|                                           
  S S S S S S S S S S S S E  E  E   E       Q    E  E  E  E  E  E   
----------------------------------------||-------------------------|
---------------------------------------*||-------------------------|
--3-3-3-3-3-3-3-3-3-3-3-3--------------*||----------7-----5-----3--|
--------------------------1--4--3~--1---||--0----0-----0-----0-----|


  W                   W                   H        E  E  E   E   
-------------------|-------------------|------------------------|
-------------------|-------------------|------------------------|
-------------------|-------------------|------------------------|
--0----------------|--5----------------|--3--------1--4--3~--1--|


  Q    E  E  E  E  E  E     W                   W                 
-------------------------|-------------------|-------------------|
-------------------------|-------------------|-------------------|
----------7-----5-----3--|-------------------|-------------------|
--0----0-----0-----0-----|--0----------------|--5----------------|


                           |-3-|        |-3-|    |-3-|     
  H        E  E  E   E     S S S Q.     S S S E  S S S E   
------------------------|---------------------------------|
------------------------|---------------------------------|
------------------------|---------------------------------|
--3--------1--4--3~--1--|--0-0-0--------0-0-0----0-0-0----|


  |-3-|        |-3-|    |-3-|       |-3-|        |-3-|    |-3-|     
  S S S Q.     S S S E  S S S E     S S S Q.     S S S E  S S S E   
---------------------------------|---------------------------------|
---------------------------------|---------------------------------|
---------------------------------|---------------------------------|
--0-0-0--------0-0-0----0-0-0----|--5-5-5--------5-5-5----5-5-5----|


  |-3-|        |-3-|    |-3-|         |-3-|        |-3-|    |-3-|     
  S S S Q.     S S S E  S S S E       S S S Q.     S S S E  S S S E   
---------------------------------||----------------------------------|
---------------------------------||*---------------------------------|
---------------------------------||*---------------------------------|
--3-3-3--------3-3-3----3-3-3----||---0-0-0--------0-0-0----0-0-0----|


  |-3-|        |-3-|    |-3-|       |-3-|        |-3-|    |-3-|     
  S S S Q.     S S S E  S S S E     S S S Q.     S S S E  S S S E   
---------------------------------|---------------------------------|
---------------------------------|---------------------------------|
---------------------------------|---------------------------------|
--0-0-0--------0-0-0----0-0-0----|--5-5-5--------5-5-5----5-5-5----|


  |-3-|        |-3-|    |-3-|                                     
  S S S Q.     S S S E  S S S E   3x   E  E  E  E  E  E  E  E   4x
----------------------------------||----------------------------||
---------------------------------*||*--------------------------*||
---------------------------------*||*--------------------------*||
--3-3-3--------3-3-3----3-3-3-----||---0--0--1--0--4--0--3--0---||


       |-3-|      |-3-|      |-3-|      |-3-|  
  S  S S S S S  S S S S S  S S S S S  S S S S  
----------------------------------------------|
----------------------------------------------|
-------------2S-1------------------4S-3-------|
--1S-0-0-0-0------0-0-0-1S-0-0-0-0------0-0-0-|


       |-3-|      |-3-|                  
  S  S S S S S  S S S S S  S S S S S E   
----------------------------------------|
----------------------------------------|
-------------2S-1-----------------------|
--1S-0-0-0-0------0-0-0-1S-0-0-0-0-0-4--|


       |-3-|      |-3-|      |-3-|      |-3-|  
  S  S S S S S  S S S S S  S S S S S  S S S S  
----------------------------------------------|
----------------------------------------------|
-------------2S-1------------------4S-3-------|
--1S-0-0-0-0------0-0-0-1S-0-0-0-0------0-0-0-|


       |-3-|      |-3-|                                                  
  S  S S S S S  S S S S S  S S S S S S S      E  E  E  E  E  E  E  E     
-----------------------------------------||----------------------------||
-----------------------------------------||*--------------------------*||
-------------2S-1------------------------||*--------------------------*||
--1S-0-0-0-0------0-0-0-1S-0-0-0-0-0-0-0-||---0--0--1--0--4--0--3--0---||


  E  H        Q.             
---------------------|-----||
---------------------|-----||
---------------------|-----||
--0------------------|-----||




Duration Legend
---------------
W - whole
H - half
Q - quarter
E - 8th
S - 16th
T - 32nd
X - 64th
. - note dotted
|-n-|  - n-tuplets


Tablature Legend
----------------
L - tied note
x - dead note
g - grace note
(n) - ghost note
> - accentuded note
NH - natural harmonic
AH - artificial harmonic
TH - tapped harmonic
SH - semi harmonic
PH - pitch harmonic
h - hammer on
p - pull off
b - bend
br - bendRelease
pb - preBend
pbr - preBendRelease
brb - bendReleaseBend
\n/ - tremolo bar dip
\n - tremolo bar dive
-/n - tremolo bar Release up
/n\ - tremolo bar inverted dip
/n - tremolo bar return
-\n - tremolo bar Release down
S - shift slide
s - legato slide
/ -  slide into from below or out of upwards
\ -  slide into from above or out of downwards
~ - vibrato
W - wide vibrato
tr - trill
TP - tremolo picking
T - tapping
S - slap
P - pop
< - fade in
^ - brush up
v - brush down
Suggest correction
Give kudos to tab author, rate the tab!
1 2 3 4 5
comments
print report bad tab
guest
You may want to rate the tab now too:
select rating
Wanna post a correction for this tab? Suggest correction