Oops, an error
Loading. Please wait.

Skullfuck Crescendo Tab

277 views 1 this week
no commentswrite comment
1 2 3 4 5
3 more votes to show rating
add to favorites
launch autoscroll
font size
0
reset
how to read this tab
guitar tuner
Autoscroll
slow
fast
+/-
esc
set tempo
stop
Help us to improve Ultimate-Guitar.com Take our survey!
×
Tuning D G C F A D

Riff 1a (0:00)
|----------------------------------------------------|
|----------------------------------------------------|
|----------------------------------------------------|
|----------------------------------------------------|
|----------------------------------------------2222--|
|-111-000-1111444433332222-111-000-111144443333------|
  ... ... ................ ... ... ................

Riff 1b (0:04)
|------------------------------------------|
|------------------------------------------|
|------------------------------------------|
|------------------------------------------|
|--------------------------5---5--4--5--8--|
|-111-000-1111444433332222-6---6--5--6--9--|
  ... ... ................

Riff 1a x 1 (0:08)

Riff 1c (0:11)
|------------------------------------------------|
|------------------------------------------------|
|------------------------------------------------|
|------------------------------------------------|
|--------------------------6--5--3--5-4-5-2-5-2--|
|-111-000-1111444433332222-4--3--2--3-2-3-0-3-0--|
  ... ... ................          . . . . . .

Riff 2a (0:16)
|------------------------------------------------|
|------------------------------------------------|
|------------------------------------------------|
|------------------------------------------------|
|-2----------3----------4------------------------|
|-0--0-0-0-0-1--0-0-0-0-2--0-0-0-0-000011110000--|
     . . . .    . . . .    . . . . ............

Riff 2b (0:20)
|-----------------------------------------------|
|-----------------------------------------------|
|-----------------------------------------------|
|-----------------------------------------------|
|-2----------3----------4------------------2ph--|
|-0--0-0-0-0-1--0-0-0-0-2--0-0-0-0-00001111-----|
     . . . .    . . . .    . . . . ........

Riff   2a   x   1   (0:24)
Riff   2b   x   1   (0:28)
Riff   1a   x   1   (0:32)
Riff   1b   x   1   (0:36)
Riff   1a   x   1   (0:40)
Riff   1c   x   1   (0:44)
Riff 3a (0:48)
|---------------------------------------------------------|
|---------------------------------------------------------|
|---------------------------------------------------------|
|---------------------------------------------------------|
|---------2"------------2"------------2"----2-3-4--2-5-5--|
|-0"---------1"-0"---------1"-0"---------1"-0-1-2--0-3-3--|
                                            . .    . .

Riff 3b (0:55)
|----------------------------------------------------------|
|----------------------------------------------------------|
|----------------------------------------------------------|
|----------------------------------------------------5--6--|
|---------2"------------2-3-4----------2"------------3--4--|
|-0"---------1"-0"------0-1-2--0"---------1"-0"------------|
                        . .

Riff 3c (1:04)
|----------------------------------------------------------|
|----------------------------------------------------------|
|----------------------------------------------------------|
|----------------------------------------------------------|
|---------2"------------2-3-5----------2"------------6--7--|
|-0"---------1"-0"------0-1-3--0"---------1"-0"------4--5--|
                        . .

Riff 4a (1:13)
|----------------------------------------------------------|
|----------------------------------------------------------|
|----------------------------------------------------------|
|---------7777--------7777---------------------------------| gtr 1
|-55555588----55555588--------7777----6666----7777----6666-|
|-------------------------5555----8888----5555----8888-----|

|----------------------------------------------------------|
|----------------------------------------------------------|
|----------------------------------------------------------|
|----------------------------------------------------------| gtr 2
|-5"-------------------------------------------------------|
|-------------------------5"-------------------------------|


Riff 4b (1:18)
|----------------------------------------------------------|
|----------------------------------------------------------|
|----------------------------------------------------------|
|---------4444--------4444---------------------------------| gtr 1
|-33333366----33333366--------5555----4444----5555----4444-|
|-------------------------3333----6666----3333----6666-----|

|----------------------------------------------------------|
|----------------------------------------------------------|
|----------------------------------------------------------|
|----------------------------------------------------------| gtr 2
|-3"-------------------------------------------------------|
|-------------------------3"-------------------------------|

Riff   4a   x   1   (1:23)
Riff   4b   x   1   (1:27)
Riff   3a   x   1   (1:32)
Riff   3b   x   1   (1:40)
Riff   3c   x   1   (1:48)
Riff 5a (1:57)
|-------------------------------------------------|
|-------------------------------------------------|
|-------------------------------------------------|
|----------------------------------------------7--|
|----2"-------4"-------4-----2"-------4"-------5--|
|-1"----3"-4"----3"-4"-2--1"----3"-4"----3"-4"----|

Riff 5b (2:01)
|----------------------------------------------------------|
|----------------------------------------------------------|
|----------------------------------------------------------|
|----------------------------------------------------------|
|----2"-------4"-------4-----------------------------------|
|-1"----3"-4"----3"-4"-2--22222222333333331111111122222222-|
                          ................................

Riff 5a x 1 (2:06)
Riff 5b x 1 (2:11)

Riff 6a (2:15)
|--------------------------------------------------------------|
|--------------------------------------------------------------|
|--------------------------------------------------------------|
|-------------------------------------------------6------------| gtr 1
|-------4-----------4-----------4-----4-------------3-2-1---1--|
|-0-3-6---000-0-3-6---000-0-3-6---0-5---2-1-5-4-5---------4----|
  . . .   ... . . .   ... . . .   . .   . . . . .   . . . .

|--------------------------------------------------------------|
|-------------------------------------6-----------7------------|
|-----------------------------------------------------------3--|
|---------------------------------------------------3-2-1------| gtr 2
|-------4-----------4-----------4-------2-1-5-4-5---------4----|
|-0-3-6---000-0-3-6---000-0-3-6---0-5--------------------------|
  . . .   ... . . .   ... . . .   . .   . . . . .   . . . .


Riff 6b (2:20)
|--------------------------------------------------|
|--------------------------------------------------|
|--------------------------------------------------|
|-------------------------------------4-----3------| gtr 1
|-------4-----------4-----------4-----2-7-6-1-4-3--|
|-0-3-6---000-0-3-6---000-0-3-6---0-5---5-4---2-1--|
  . . .   ... . . .   ... . . .   . .   . . . . .

|--------------------------------------------------|
|--------------------------------------------------|
|--------------------------------------------------|
|-------------------------------------4-----3------| gtr 2
|-------4-----------4-----------4-----2-7-6-1-4-3--|
|-0-3-6---000-0-3-6---000-0-3-6---0-5---5-4---2-1--|
  . . .   ... . . .   ... . . .   . .   . . . . .
Riff   6a   x   1   (2:24)
Riff   6b   x   1   (2:29)
Riff   1a   x   1   (2:33)
Riff   1b   x   1   (2:37)
Riff   1a   x   1   (2:41)
Riff   1c   x   1   (2:45)
Riff   2a   x   1   (2:49)
Riff   2b   x   1   (2:53)
Riff   2a   x   1   (2:57)
Riff   2b   x   1   (3:01)
Riff   5a   x   1   (3:05)
Riff   5b   x   1   (3:10)
Riff   5a   x   1   (3:15)
Riff   5b   x   1   (3:19)
Riff   6a   x   1   (3:23)
Riff   6b   x   1   (3:29)
Riff   6a   x   1   (3:33)
Riff   6b   x   1   (3:38)

End (3:42)
|---------------------|
|---------------------|
|---------------------|
|---------------------|
|-2-------------------|
|-0-------------------|

Tab Legend

. - palm mute
\ - slide down to
/ - slide up to
h - hammer on
t - tap
ph - pinched harmonic
^ - Hold bend
r release bend
~ - vibrato bend
() - ghost note, sustained note
" - tremolo note
b - Bend
f - full bend
h - half bend
q - quarter bend
^ - Hold bend
r - release bend
Suggest correction
Give kudos to tab author, rate the tab!
1 2 3 4 5
comments
print report bad tab
guest
You may want to rate the tab now too:
select rating
Wanna post a correction for this tab? Suggest correction