Oops, an error
Loading. Please wait.

The Inertia Tab

169 views 1 this week
no commentswrite comment
1 2 3 4 5
please rate
add to favorites
launch autoscroll
font size
0
reset
how to read this tab
guitar tuner
Autoscroll
slow
fast
+/-
esc
set tempo
stop
Help us to improve Ultimate-Guitar.com Take our survey!
×
Author

Tuning B E A D F# B

Intro A (0:00)
|----------------------------------------------------------|
|----------------------------------------------------------|
|----------------------------------------------------------|
|----------5-4----------------------------5-4--h5--5-5-4---|
|-3--6-3-6-----6-(6)--6-(6)------3--6-3-6-----6------------|
|-----------------7------7-3-2-0---------------------------|
                               .
Intro B (0:05)
|-------------------------------------------------------------------|
|-------------------------------------------------------------------|
|-------------------------------------------------------------------|
|----------5-4------------------------------------------------------|
|-3--6-3-6-----6-(6)--6-(6)----4--4-4-6--6-6-6-6-6-6-6-/9-9-9-9-9-9-|
|-----------------7------7-3-2-2--2-2-4--4-4-4-4-4-4-4-/7-7-7-7-7-7-|
                                  . .    . . . . . . .    .

Riff 1a (0:10)
|---------------------------------------------------------|
|---------------------------------------------------------|
|---------------------------------------------------------|
|-------------------1-------------------------------------|
|-333-333-333-333-2---2-------333-333-333-333-6----9----9-|
|-----------------------4-3-------------------4--0-7--0-7-|
  ... ... ... ...         .   ... ... ... ...    .    .

Riff 1b (0:14)
|-------------------------------------------------------|
|-------------------------------------------------------|
|-------------------------------------------------------|
|-----------------1-------------------------------------|
|-333-333-333-333-2--2----6-----------------------------|
|----------------------3--4--4-4-4-4-4-4-4-/7-7-7-7-7-7-|
  ... ... ... ...            . . . . . . .    .


Riff 2a (0:19)
|----------------------------------------------------------|
|----------------------------------------------------------|
|----------------------------------------------------------|
|----------5-4----------------------------5-4--h5--5-5-4---| gtr 1
|-3--6-3-6-----6-(6)--6-(6)------3--6-3-6-----6------------|
|-----------------7------7-3-2-0---------------------------|
                               .
|----------------------------------------------------------|
|----------8-7----------------------------8-7--h8--8-8-7---|
|-5--8-5-8-----8-(8)--8-(8)------5--8-5-8-----8------------|
|-----------------9------9-5-4-----------------------------| gtr 2
|------------------------------7---------------------------|
|----------------------------------------------------------|
                               .
Riff 2b (0:24)
|-------------------------------------------------------------------|
|-------------------------------------------------------------------|
|-------------------------------------------------------------------|
|----------5-4------------------------------------------------------|
|-3--6-3-6-----6-(6)--6-(6)----4--4-4-6--6-6-6-6-6-6-6-/9-9-9-9-9-9-|
|-----------------7------7-3-2-2--2-2-4--4-4-4-4-4-4-4-/7-7-7-7-7-7-|
                                  . .    . . . . . . .    .

|-------------------------------------------------------------------|
|----------8-7------------------------------------------------------|
|-5--8-5-8-----8-(8)--8-(8)-----------------------------------------|
|-----------------9------9-5-4-4--4-4-6--6-6-6-6-6-6-6-/9-9-9-9-9-9-|
|-------------------------------------------------------------------|
|-------------------------------------------------------------------|
                                  . .    . . . . . . .    .

Riff 3a (0:29)
|-----------------------------------------------------------|
|-----------------------------------------------------------|
|---------------------------------------------7------8------|
|-10------9------5------6------10------9--------------------| gtr 1
|-----------------------------------------------------------|
|-----------------------------------------------------------|

|-----------------------------------------------------------|
|-----------------------------------------------------------|
|-----------------------------------------------------------|
|---------------------------------------------7------8------| gtr 2
|-10------9------5------6------10------9------5------6------|
|-8-------7------3------4------8-------7--------------------|


Riff 3b (0:38)
|-------------------------------------------5fb-------------|
|-8------7------3------4------8------7----8--------8--------|
|-----------------------------------------------------------|
|-----------------------------------------------------------| gtr 1
|-----------------------------------------------------------|
|-----------------------------------------------------------|

|-----------------------------------------------------------|
|-----------------------------------------------------------|
|-----------------------------------------------------------|
|-----------------------------------------------------------| gtr 2
|-------------------------------------------5"-----6"-------|
|-8"-----7"-----3"-----4"-----8"-----7"---------------------|


Riff 4a (0:48)
|---------|-----------|------------------------------|
|---------|-drum fill-|------------------------------|
|---------|-----------|------------------------------|
|---------|-----------|------------------------------|
|-------2-|-----------|-----3----5----6----5---------|
|-1111110-|-----------|-0-0-1--0-3--0-4--0-3--0-4^~--|
  ......x               . .    .    .    .    .

Riff 4b (0:53)
|---------|-----------|-------------------------|
|---------|-drum fill-|-------------------------|
|---------|-----------|-------------------------|
|---------|-----------|-------------------------|
|-------2-|-----------|-3---5---6---5---5--5-5--|
|-1111110-|-----------|-1---3---4---3---3--3-3--|
  ......x
Riff 5a (0:58)
|------------------------------------------------------|
|------------------------------------------------------|
|------------------------------------------------------|
|------------------------------------------------------|
|-3-3-3-2-------------------3----5----6----5----5--5-5-|
|-1-1-1-0---0-0-0-0-0-0-0-0-1--0-3--0-4--0-3--0-3--3-3-|
  . . .     . . . . . . . .    .    .    .    .

Riff 5b (1:03)
|--------------------------------------------------|
|--------------------------------------------------|
|--------------------------------------------------|
|-----------------------------------------------4--|
|-3-3-3-2-------------------3----5----6----5----2--|
|-1-1-1-0---0-0-0-0-0-0-0-0-1--0-3--0-4--0-3--0----|
  . . .     . . . . . . . .    .    .    .    .

Riff 1a   x   1   (1:07)
Riff 1b   x   1   (1:12)
Intro A   x   1   (1:17)
Intro B   x   1   (1:22)
Riff 5a   x   2   (1:26)

Riff 5c (1:36)
|------------------------------------------------------|
|------------------------------------------------------|
|------------------------------------------------------|
|------------------------------------------------------|
|-6-6-6-5-------------------6----8----9----8----8--8-8-|
|-4-4-4-3---3-3-3-3-3-3-3-3-4--3-6--3-7--3-6--3-6--6-6-|
  . . .     . . . . . . . .    .    .    .    .

Riff 5d (1:41)
|--------------------------------------------------|
|--------------------------------------------------|
|--------------------------------------------------|
|--------------------------------------------------|
|-6-6-6-5-------------------6----8----9----8----5--|
|-4-4-4-3---3-3-3-3-3-3-3-3-4--3-6--3-7--3-6--3-3--|
  . . .     . . . . . . . .    .    .    .    .

Fill 1 (1:46)
|-----------------------------------|
|-----------------------------------|
|-------7"-6"-----------------------|
|-5"-8"-------8"-5"-8"-5"-8"--------|
|-------------------------6"--------|
|-----------------------------------|

Riff 6a (1:50)
|-----------------------------------------------------|
|-----------------------------------------------------|
|-------7"-6"-------------7-6-7--6---6----------------|
|-5"-8"-------8"-5"-8"-5"----------8----8-7-8--7---7--| gtr 1
|------------------------------------------------8----|
|-----------------------------------------------------|

|-----------------------------------------------------|
|-----------------------------------------------------|
|-----------------------------------------------------|
|-----------------------------------------------------| gtr 2
|-5"----------------------7"------------8"------------|
|-3"----------------------5"------------6"------------|
Riff 6b (1:55)
|------------------------------------------------------|
|------------------------------------------------------|
|-------7"-6"------------------------------------------|
|-5"-8"-------8"-5"-8"-5"-8"-----------4"--------------| gtr 1
|-------------------------6"---------------------------|
|------------------------------------------------------|

|------------------------------------------------------|
|------------------------------------------------------|
|------------------------------------------------------|
|-------------------------8"---------------------------| gtr 2
|-5"----------------------6"---------------------------|
|-3"---------------------------------------------------|

Riff 6a x 1 (2:00)

Solo starts at (2:05)

Riff 7 (2:05) play twice
|-----------------------------------------------------------|
|-----------------------------------------------------------|
|-----------------------------------------------------------|
|---------------------------------------------7------8------|
|-10------9------5------6------10------9------5------6------|
|-8-------7------3------4------8-------7--------------------|

Riff 8a (2:25)
|-------------------------------------------------------------------|
|-------------------------------------------------------------------|
|-------------------------------------------------------------------|
|-------------------------------------------------------------------|
|-2-2---2-4/5---2-2-2---2-5\4-2-3--3-3-3-3-3-3-3-3-3-/6-6-6-6-6-6-6-|
|-0-0---0-2/3---0-0-0---0-3\2-0-1--1-1-1-1-1-1-1-1-1-/4-4-4-4-4-4-4-|
    x   .       .   x   .     .    . . . . . . . . . . . . .    .

---|
---|
---|
---|
-6-|
-4-|

Riff 8b (2:30)
|-------------------------------------------------------------------|
|-------------------------------------------------------------------|
|-------------------------------------------------------------------|
|----------------------------------5-5-5-5-5-5-5-5-5----------------|
|-2-2---2-4/5---2-2-2---2-5\4-2-3--3-3-3-3-3-3-3-3-3-/6-6-6-6-6-6-6-|
|-0-0---0-2/3---0-0-0---0-3\2-0-1---------------------4-4-4-4-4-4-4-|
    x   .       .   x   .     .    . . . . . . . . . . . . .    .

---|
---|
---|
---|
-6-|
-4-|

Riff 8a x 1 (2:37)
Riff 8b x 1 (2:43)

Riff 9a (2:49)
|-------------------------------------------------------------------|
|-------------------------------------------------------------------|
|-------------------------------------------------------------------|
|---7-9-10---6-7-9--------------------------------------------------|
|-7--------7---------7-9-10-9-7-9-\------10---10--------------------|
|------------------9----------------8--8----8----8-0-4~--444-4-4-1--|
  . . . . . . . . . . . . . . .        .    .    .       ... . .
Riff 9b (2:56)
|-------------------------------------------------------------------|
|-------------------------------------------------------------------|
|--------------------------------------------7-6--------------------|
|---7-9-10---6-7-9------------------5--5-8-5-----8-8--8-------------|
|-7--------7---------7-9-10-9-7-9-\----------------9----9-----------|
|------------------9--------------------------------------10--10/12-|
  . . . . . . . . . . . . . . .        .   .

Riff 9a   x   1   (3:02)
Riff 9b   x   1   (3:08)
Riff 1a   x   1   (3:15)
Riff 1b   x   1   (3:20)
Intro A   x   1   (3:24)
Intro B   x   1   (3:29)

End (3:35)

Tab Legend
. - palm mute
\ - slide down to
/ - slide up to
h - hammer on
t - tap
ph - pinched harmonic
^ - Hold bend
r release bend
~ - vibrato bend
() - ghost note, sustained note
" - tremolo note
b - Bend
f - full bend
h - half bend
q - quarter bend
^ - Hold bend
r - release bend
Suggest correction
What's this?
You can suggest a correction to this tab. Community and Mods will review your correction and vote to approve or reject it.
comments
We did not receive enough feedback on this tab! Please rate:
print report bad tab
1 2 3 4 5
guest
You may want to rate the tab now too:
select rating
Please do not post tabs as comments. Select "correction" instead!