Oops, an error
Loading. Please wait.

To Roast And Grind Tab

196 views 1 this week
no commentswrite comment
1 2 3 4 5
please rate
add to favorites
launch autoscroll
font size
0
reset
how to read this tab
guitar tuner
Autoscroll
slow
fast
+/-
esc
set tempo
stop
Help us to improve Ultimate-Guitar.com Take our survey!
×
Author

Tuning D G C F A D

Intro (0:00) play twice
|----------------------------------------------------------|
|----------------------------------------------------------|
|----------------------------------------------------------|
|----------------------------------------------------------|
|-3/5\3--------------------------3/5\3---------------------|
|-1/3\1--1"--0"--1"--0"--1"--0"--1/3\1--1"--0"--1"--0"--1--|
         .   .   .   .   .   .          .   .   .   .   .

Riff 1 (0:04)
                             [x3]                 [x1]
|-------------------------------|--------------------|
|-------------------------------|--------------------|
|-------------------------------|--------------------|
|-------------------------------|--------------------|
|-------------------------3/5\3-|--------------------|
|-1"--0"--1"--0"--1"--0"--1/3\1-|-1"--0"--1"--0"--1--|
  .   .   .   .   .   .           .   .   .   .   .

Riff 2 (0:13) play twice
            [x4]          [x4]
|---------------|------------|
|---------------|------------|
|---------------|------------|
|--------0h2h3--|------------|
|---------------|-----3/5\3--|
|-1"--0"--------|-0"--1/3\1--|
  .   .           .

Riff 3 (0:29)
          [1, 3]             [2, 4]           [don’t play on last time]
|---------------|------------------|----------------------------------|
|---------------|------------------|----------------------------------|
|---------------|------------------|----------------------------------|
|---------------|------------------|----------------------------------|
|-6---5/6\5--3--|-6---5/6\5--3ph~--|----------------------------------|
|-6---5/6\5--3--|-6---5/6\5--------|-3-2-0-0-3-2-0-0-3-2-0-0-3-2-0-0--|
                                     . . . . . . . . . . . . . . . .

Riff 4a (0:44)
|------------------------------------------------|
|------------------------------------------------|
|------------------------------------------------|
|-------3"--------------------3"-------3"--------|
|----2"----2"----2"-1"-----2"----2"-5"----5"-4"--|
|-1"----------1"--------1"-----------------------|
Riff 4b (0:48)
|------------------------------------------------|
|------------------------------------------------|
|--------------------------------------------4"--|
|-------3"--------------------3"-------3"-6"-----|
|----2"----2"----2"-1"-----2"----2"-5"-----------|
|-1"----------1"--------1"-----------------------|

Riff 4a x 1 (0:52)
Riff 4b x 1 (0:56)
Riff 2 x 1 (1:00)

Riff 5 (1:17) play twice
|--------------------------------------------------|
|--------------------------------------------------|
|--------------------------------------------------|
|-------4"----------------------4"--------2-3-2-3--|
|-4--3-----4--3--4--6ph~--4--3------4--3--2-3-2-3--|
|-4--3-----4--3--4--------4--3------4--3-----------|
  . .      . . .          . .       . . . . . .

Riff 6 (1:25) play twice
|--------------------------------------------------------------------------|
|--------------------------------------------------------------------------|
|--------------------------------------------------------------------------|
|----------------------------------3"--------------------------------------|
|-------4"-------3"-------4"----------------4"-------3"-------4"-----------|
|-3"-4"----3"-2"----3"-4"----3"-2"----3"-4"----3"-2"----3"-4"----3"-2"-1"--|

Riff 5 x 1 (1:41)

Riff 7a (1:49)
                           [x3]                            [x1]
|-----------------------------|-------------------------------|
|-----------------------------|-------------------------------|
|-----------------------------|-------------------------------|
|-----------------------------|-------------------------------|
|-----------------------------|-------------------------3--3--|
|-2222224422222244222222441"--|-2222224422222244222222441--1--|
                                                        x x

Riff 7b (1:58) play 4 times
|-----------------------------|
|-----------------------------|
|-----------------------------|
|-----------------------------|
|-----------------------------|
|-2222224422222244222222441"--|

Riff 8 (2:06) play 4 times
|------------------------------------------|
|------------------------------------------|
|------------------------------------------|
|-----------------------------------3"-----|
|-------------------------2"-----2"--------|
|-2"-3"-2"-5"-2"-3"-2"-1"----1"--------1"--|

Riff 9a (2:21)
                           [x2]                          [x1]
|-----------------------------|-----------------------------|--------------|
|-----------------------------|----4~-----4~-----4~---------|-3h6-2h5------|
|-----------------------------|-246----246----246----2467~--|---------2h5--|
|-----------------------------|-----------------------------|--------------|
|-0346~--0346~--0346~--0345~--|-----------------------------|--------------|
|-----------------------------|-----------------------------|--------------|
  ...    ...    ...    ...      ...    ...    ...    ...
----------------------|
-4h7-5h8-4h7-----6h9--|
-------------4h7------|
----------------------|
----------------------|
----------------------|

Riff 9a (2:30)
                           [x3]                         [x1]
|-----------------------------|----------------------------|
|-----------------------------|-6-5-3-------------------5--|
|-----------------------------|-------5-3-----------4-5----|
|-----------------------------|-----------3~--3-4-6--------|
|-0346~--0346~--0346~--0345~--|----------------------------|
|-----------------------------|----------------------------|
  ...    ...    ...    ...

Riff 10a (2:38)
                            [x3]               [x1]
|-------------------------------|-----------------|
|-------------------------------|-----------------|
|-------------------------------|-----------------|
|-------------------------------|-----------------|
|-3-------3-------3-------4--3--|-----------------|
|---2-1-1---2-1-1---2-1-1-2--1--|-2"--3"--2"--1"--|
    . . .   . . .   . . . . .

Riff 10b (2:45)
                            [x3]                          [x1]
|-------------------------------|----------------------------|
|-------------------------------|-8-6-5-------------------5--|
|-------------------------------|-------5-3-----------4-5----|
|-------------------------------|-----------3~--3-4-6--------|
|-3-------3-------3-------4--3--|----------------------------|
|---2-1-1---2-1-1---2-1-1-2--1--|----------------------------|
    . . .   . . .   . . . . .

Riff 3 x 1 (2:53)
Riff 4a x 1 (3:08)
Riff 4b x 1 (3:12)
Riff 4a x 1 (3:16)
Riff 4b x 1 (3:20)
Riff 2 x 1 (3:24)
End of guitar (3:41)
End of song (4:41)

Tab Legend

. - palm mute
\ - slide down to
/ - slide up to
h - hammer on
t - tap
ph - pinched harmonic
^ - Hold bend
r release bend
~ - vibrato bend
() - ghost note, sustained note
" - tremolo note
b - Bend
f - full bend
h - half bend
q - quarter bend
^ - Hold bend
r - release bend
Suggest correction
What's this?
You can suggest a correction to this tab. Community and Mods will review your correction and vote to approve or reject it.
comments
We did not receive enough feedback on this tab! Please rate:
print report bad tab
1 2 3 4 5
guest
You may want to rate the tab now too:
select rating
Please do not post tabs as comments. Select "correction" instead!