Oops, an error
Loading. Please wait.

Filmic tab

13 views 1 this week
no commentswrite comment
1 2 3 4 5
3 more votes to show rating
add to favorites
×
Save as Personal and add changes to this tab that will be seen only by you. Learn more ›
×
You can save this tab as Personal to edit and correct it or add notes. All changes will be seen only by you. Learn more »
launch autoscroll
font size
0
reset
how to read this tab
guitar tuner
edit
Autoscroll
slow
fast
+/-
esc
set tempo
stop
About this tab version
This version takes a few liberties with the original, since it is a transcription from piano and strings. Chord symbols may not be accurate. YouTube link: https://www.youtube.com/watch?v=lPesNb0anI8. Was this info helpful? Yes No
[Intro]
[N.C.]
e|--------15-------15-------15-------15-------15----|--------15-------15-------15-------15-------15----|
B|-----13-------13-------13-------13-------13-------|-----13-------13-------13-------13-------13-------|
G|--12-------12-------12-------12-------12----------|--10-------10-------10-------10-------10----------|
D|--------------------------------------------------|--------------------------------------------------|
A|--------------------------------------------------|--------------------------------------------------|
E|--------------------------------------------------|--------------------------------------------------|

e|-------15-------15-------15-------15-------15----|--------15-------15-------15-------15-------15-----|
B|-----13------13-------13-------13-------13-------|-----13-------13-------13-------13-------13----13--|
G|-------------------------------------------------|---------------------------------------------------|
D|--13------13-------13-------13-------13----------|--12-------12-------12-------12-------12-----------|
A|-------------------------------------------------|---------------------------------------------------|
E|-------------------------------------------------|---------------------------------------------------|

e|--------15-------15-------15-------15-------15-----|--------15-------15-------15-------15-------15-----|
B|-----13-------13-------13-------13-------13----13--|-----13-------13-------13-------13-------13--------|
G|--13-------13-------13-------13-------13-----------|--15-------15-------15-------15-------15-----------|
D|---------------------------------------------------|---------------------------------------------------|
A|---------------------------------------------------|---------------------------------------------------|
E|---------------------------------------------------|---------------------------------------------------|

e|-------15-------15-------15-------15-------15----|--------15-------15-------15-------15-------15-----|
B|-----13------13-------13-------13-------13-------|-----13-------13-------13-------13-------13----13--|
G|-------------------------------------------------|---------------------------------------------------|
D|--10------10-------10-------10-------10----------|--10-------10-------10-------10-------10-----------|
A|-------------------------------------------------|---------------------------------------------------|
E|-------------------------------------------------|---------------------------------------------------|

[String entrance at 0:30]
   [C5]                                               [Csus4]                                                
e|--------15-------15-------15-------15-------15----|--------15-------15-------15-------15-------15----|
B|-----13-------13-------13-------13-------13-------|-----13-------13-------13-------13-------13-------|
G|--12-------12-------12-------12-------12----------|--10-------10-------10-------10-------10----------|
D|--------------------------------------------------|--------------------------------------------------|
A|--15----------------------------------------------|--15----------------------------------------------|
E|--------------------------------------------------|--------------------------------------------------|

   [Cm7]                                              [Csus2/F]
e|-------15-------15-------15-------15-------15----|--------15-------15-------15-------15-------15-----|
B|-----13------13-------13-------13-------13-------|-----13-------13-------13-------13-------13----13--|
G|-------------------------------------------------|---------------------------------------------------|
D|--13------13-------13-------13-------13----------|--12-------12-------12-------12-------12-----------|
A|--15---------------------------------------------|---------------------------------------------------|
E|-------------------------------------------------|--13-----------------------------------------------|

   [Abmaj7]                                             [Gm4]
e|--------15-------15-------15-------15-------15-----|--------15-------15-------15-------15-------15-----|
B|-----13-------13-------13-------13-------13----13--|-----13-------13-------13-------13-------13--------|
G|--13-------13-------13-------13-------13-----------|--15-------15-------15-------15-------15-----------|
D|---------------------------------------------------|---------------------------------------------------|
A|--11-----------------------------------------------|--10-----------------------------------------------|
E|---------------------------------------------------|---------------------------------------------------|

   [C5]
e|-------15-------15-------15-------15-------15----|--------15-------15-------15-------15-------15-----|
B|-----13------13-------13-------13-------13-------|-----13-------13-------13-------13-------13----13--|
G|-------------------------------------------------|---------------------------------------------------|
D|--10------10-------10-------10-------10----------|--10-------10-------10-------10-------10-----------|
A|-------------------------------------------------|---------------------------------------------------|
E|-------------------------------------------------|---------------------------------------------------|

1:00 [x4]:
   [Abmaj7]                                               [Csus4/Bb]                                                
e|--------15-------15-------15-------15-------15----|--------15-------15-------15-------15-------15----|
B|-----13-------13-------13-------13-------13-------|-----13-------13-------13-------13-------13-------|
G|--12-------12-------12-------12-------12----------|--10-------10-------10-------10-------10----------|
D|--------------------------------------------------|--------------------------------------------------|
A|--11----------------------------------------------|--13----------------------------------------------|
E|--------------------------------------------------|--------------------------------------------------|

   [F7]                                              [Csus2/Eb]
e|-------15-------15-------15-------15-------15----|--------15-------15-------15-------15-------15-----|
B|-----13------13-------13-------13-------13-------|-----13-------13-------13-------13-------13----13--|
G|-------------------------------------------------|---------------------------------------------------|
D|--13------13-------13-------13-------13----------|--12-------12-------12-------12-------12-----------|
A|-------------------------------------------------|---------------------------------------------------|
E|--13---------------------------------------------|--11-----------------------------------------------|

   [Abmaj7]                                             [Bb2/6]
e|--------15-------15-------15-------15-------15-----|--------15-------15-------15-------15-------15-----|
B|-----13-------13-------13-------13-------13----13--|-----13-------13-------13-------13-------13--------|
G|--13-------13-------13-------13-------13-----------|--15-------15-------15-------15-------15-----------|
D|---------------------------------------------------|---------------------------------------------------|
A|--11-----------------------------------------------|--13-----------------------------------------------|
E|---------------------------------------------------|---------------------------------------------------|

   [C5]
e|-------15-------15-------15-------15-------15----|--------15-------15-------15-------15-------15-----|
B|-----13------13-------13-------13-------13-------|-----13-------13-------13-------13-------13----13--|
G|-------------------------------------------------|---------------------------------------------------|
D|--10------10-------10-------10-------10----------|--10-------10-------10-------10-------10-----------|
A|-------------------------------------------------|---------------------------------------------------|
E|-------------------------------------------------|---------------------------------------------------|

[Outro]
(piano, over the sustained strings)
[N.C.]
e|--------15-------15-------15-------15-------15----|--------15-------15-------15-------15-------15----|
B|-----13-------13-------13-------13-------13-------|-----13-------13-------13-------13-------13-------|
G|--12-------12-------12-------12-------12----------|--10-------10-------10-------10-------10----------|
D|--------------------------------------------------|--------------------------------------------------|
A|--------------------------------------------------|--------------------------------------------------|
E|--------------------------------------------------|--------------------------------------------------|

e|-------15-------15-------15-------15-------15----|--------15-------15-------15-------15-------15-----|
B|-----13------13-------13-------13-------13-------|-----13-------13-------13-------13-------13----13--|
G|-------------------------------------------------|---------------------------------------------------|
D|--13------13-------13-------13-------13----------|--12-------12-------12-------12-------12-----------|
A|-------------------------------------------------|---------------------------------------------------|
E|-------------------------------------------------|---------------------------------------------------|

e|-------15-------15-------15-------15-------15----|--------15-------15-------15-------15-------15-----|
B|-----13------13-------13-------13-------13-------|-----13-------13-------13-------13-------13----13--|
G|-------------------------------------------------|---------------------------------------------------|
D|--10------10-------10-------10-------10----------|--10-------10-------10-------10-------10-----------|
A|-------------------------------------------------|---------------------------------------------------|
E|-------------------------------------------------|---------------------------------------------------|

e|-------15-------15-------15-------15-------15----|--------15-------15-------15-------15-------15-----|
B|-----13------13-------13-------13-------13-------|-----13-------13-------13-------13-------13----13--|
G|-------------------------------------------------|---------------------------------------------------|
D|--10------10-------10-------10-------10----------|--10-------10-------10-------10-------10-----------|
A|-------------------------------------------------|---------------------------------------------------|
E|-------------------------------------------------|---------------------------------------------------|

            
            
Suggest correction
Creating personal tab
Creating personal tab
You can edit any tab online and save it as your Personal.

You can edit, replace or remove any tab part or add personal notes – all changes will be seen only by you.

Personal tabs can be accessed anytime from any device, even offline.
Learn more »
Give kudos to tab author, rate the tab!
1 2 3 4 5
comments
print report bad tab
guest
You may want to rate the tab now too:
select rating
Wanna post a correction for this tab? Suggest correction