Oops, an error
Loading. Please wait.

Evil Never Sleeps tab

307 views 1 this week
no commentswrite comment
1 2 3 4 5
2 more votes to show rating
add to favorites
×
Save as Personal and add changes to this tab that will be seen only by you. Learn more ›
×
You can save this tab as Personal to edit and correct it or add notes. All changes will be seen only by you. Learn more »
launch autoscroll
font size
0
reset
how to read this tab
guitar tuner
edit
Autoscroll
slow
fast
+/-
esc
set tempo
stop
[Intro]

(Gtr.1)
E||----------|--------------|--------------|--------------|--------------|---------------|
B||----------|--------------|--------------|--------------|--------------|---------------|
G||-7/5/7----|--------------|7/5/7---------|----7/5/7-----|--------------|5--------------|
D||-7/5/7-5--|3--5--3-------|7/5/7—5--3—5--|----7/5/7-5--3|5-3--3-5-3—-3-|5--------------| x2
A||-5/3/5-5--|3--5--3-------|5/3/5-5--3—5--|----5/3/5-5--3|5-3--3-5-3--3-|3--------------|
E||-------5--|3--5--3-------|------5--3—5--|----------5--3|5-3--3-5-3--3-|---------------|


(Gtr.2)
E||----------|--------------|--------------|--------------|--------------|---------------|
B||15-15-15/13/15-|-15/13/15--15/13/15--15/18-------------|--------------|---------------|
G||----------|--------------|--------------|--------------|--------------|---------------|
D||12-12-12/10/12-|-12/10/12--12/10/12--12/15-------------|--------------|---------------|
A||----------|--------------|--------------|--------------|--------------|---------------|
E||----------|--------------|--------------|--------------|--------------|---------------|


[Verse] 

E||----------|--------------|--------------|--------------|--------------|---------------|
B||----------|--------------|--------------|--------------|--------------|---------------|
G||-7/5/7----|--------------|7/5/7---------|----7/5/7-----|--------------|5--------------|
D||-7/5/7-5--|3--5--3-------|7/5/7—5--3—5--|----7/5/7-5--3|5-3--3-5-3—-3-|5--------------|
A||-5/3/5-5--|3--5--3-------|5/3/5-5--3—5--|----5/3/5-5--3|5-3--3-5-3--3-|3--------------|
E||-------5--|3--5--3-------|------5--3—5--|----------5--3|5-3--3-5-3--3-|---------------|

E||----------|--------------|--------------|--------------|--------------|---------------|
B||----------|--------------|--------------|--------------|--------------|---------------|
G||-7/5/7----|--------------|7/5/7---------|----7/5/7-----|--------------|5--------------|
D||-7/5/7-5--|3--5--3-------|7/5/7—5--3—5--|----7/5/7-5--3|5-3--3-5-3—-3-|5--------------|
A||-5/3/5-5--|3--5--3-------|5/3/5-5--3—5--|----5/3/5-5--3|5-3--3-5-3--3-|3--------------|
E||-------5--|3--5--3-------|------5--3—5--|----------5--3|5-3--3-5-3--3-|---------------|

E||----------|--------------|--------------|--------------|--------------|---------------|
B||----------|--------------|--------------|--------------|--------------|---------------|
G||------5/7-|-----5/7------|-------------5|--------------|--------------|---------------|
D||-2-2—-5/7-|--2—-5/7------|3-5-3--3-5-3-5|--------------|--------------|---------------|
A||-2-2—-3/5-|--2—-3/5------|3-5-3--3-5-3-3|--------------|--------------|---------------|
E||-0-0------|--0-----------|3-5-3--3-5-3--|--------------|--------------|---------------|

E||----------|--------------|--------------|--------------|--------------|---------------|
B||----------|--------------|--------------|--------------|--------------|---------------|
G||-7/5/7----|--------------|7/5/7---------|----7/5/7-----|--------------|5--------------|
D||-7/5/7-5--|3--5--3-------|7/5/7—5--3—5--|----7/5/7-5--3|5-3--3-5-3—-3-|5--------------|
A||-5/3/5-5--|3--5--3-------|5/3/5-5--3—5--|----5/3/5-5--3|5-3--3-5-3--3-|3--------------|
E||-------5--|3--5--3-------|------5--3—5--|----------5--3|5-3--3-5-3--3-|---------------|


[Bridge] 

E||----------|--------------|--------------|--------------|--------------|---------------|
B||----------|--------------|--------------|--------------|--------------|---------------|
G||----------|--------------|--------------|--------------|--------------|---------------|
D||--8----5--|--8----3------|--------------|--------------|--------------|---------------|
A||--8----5--|--8----3------|--------------|--------------|--------------|---------------|
E||--8----5--|--8----3------|--------------|--------------|--------------|---------------|


[Chorus] 

E||----------|--------------|--------------|--------------|--------------|---------------|
B||----------|--------------|--------------|--------------|--------------|---------------|
G||-------3--3--------x-5--5|--------3--3--|--------------|--------------|---------------|
D||-0--0--3--3--5--5--x-5--5|--0--0--3--3--5--5---10--8--7|--------------|---------------|
A||-0--0--1--1--5--5--x-3--3|--0--0--1--1--5--5---10--8--7|--------------|---------------|
E||-0--0-----|--3--3--------|--0--0--------3--3---10--8--7|--------------|---------------|

E||----------|--------------|--------------|--------------|--------------|---------------|
B||----------|--------------|--------------|--------------|--------------|---------------|
G||-------3--3--------x-5--5|--------3--3--|--------------|--------------|---------------|
D||-0--0--3--3--5--5--x-5--5|--0--0--3--3--5--5---10--8--7|---8----5----8|---3-----------|
A||-0--0--1--1--5--5--x-3--3|--0--0--1--1--5--5---10--8--7|---8----5----8|---3-----------|
E||-0--0-----|--3--3--------|--0--0--------3--3---10--8--7|---8----5----8|---3-----------|


[Interlude]

E||----------|--------------|--------------|--------------|--------------|---------------|
B||----------|--------------|--------------|--------------|--------------|---------------|
G||-7/5/7----|--------------|7/5/7---------|----7/5/7-----|--------------|5--------------|
D||-7/5/7-5--|3--5--3-------|7/5/7—5--3—5--|----7/5/7-5--3|5-3--3-5-3—-3-|5--------------|
A||-5/3/5-5--|3--5--3-------|5/3/5-5--3—5--|----5/3/5-5--3|5-3--3-5-3--3-|3--------------|
E||-------5--|3--5--3-------|------5--3—5--|----------5--3|5-3--3-5-3--3-|---------------|


[Verse]
 
E||----------|--------------|--------------|--------------|--------------|---------------|
B||----------|--------------|--------------|--------------|--------------|---------------|
G||-7/5/7----|--------------|7/5/7---------|----7/5/7-----|--------------|5--------------|
D||-7/5/7-5--|3--5--3-------|7/5/7—5--3—5--|----7/5/7-5--3|5-3--3-5-3—-3-|5--------------|
A||-5/3/5-5--|3--5--3-------|5/3/5-5--3—5--|----5/3/5-5--3|5-3--3-5-3--3-|3--------------|
E||-------5--|3--5--3-------|------5--3—5--|----------5--3|5-3--3-5-3--3-|---------------|

E||----------|--------------|--------------|--------------|--------------|---------------|
B||----------|--------------|--------------|--------------|--------------|---------------|
G||-7/5/7----|--------------|7/5/7---------|----7/5/7-----|--------------|5--------------|
D||-7/5/7-5--|3--5--3-------|7/5/7—5--3—5--|----7/5/7-5--3|5-3--3-5-3—-3-|5--------------|
A||-5/3/5-5--|3--5--3-------|5/3/5-5--3—5--|----5/3/5-5--3|5-3--3-5-3--3-|3--------------|
E||-------5--|3--5--3-------|------5--3—5--|----------5--3|5-3--3-5-3--3-|---------------|

E||----------|--------------|--------------|--------------|--------------|---------------|
B||----------|--------------|--------------|--------------|--------------|---------------|
G||------5/7-|-----5/7------|-------------5|--------------|--------------|---------------|
D||-2-2—-5/7-|--2—-5/7------|3-5-3--3-5-3-5|--------------|--------------|---------------|
A||-2-2—-3/5-|--2—-3/5------|3-5-3--3-5-3-3|--------------|--------------|---------------|
E||-0-0------|--0-----------|3-5-3--3-5-3--|--------------|--------------|---------------|

E||----------|--------------|--------------|--------------|--------------|---------------|
B||----------|--------------|--------------|--------------|--------------|---------------|
G||-7/5/7----|--------------|7/5/7---------|----7/5/7-----|--------------|5--------------|
D||-7/5/7-5--|3--5--3-------|7/5/7—5--3—5--|----7/5/7-5--3|5-3--3-5-3—-3-|5--------------|
A||-5/3/5-5--|3--5--3-------|5/3/5-5--3—5--|----5/3/5-5--3|5-3--3-5-3--3-|3--------------|
E||-------5--|3--5--3-------|------5--3—5--|----------5--3|5-3--3-5-3--3-|---------------|


[Bridge] 

E||----------|--------------|--------------|--------------|--------------|---------------|
B||----------|--------------|--------------|--------------|--------------|---------------|
G||----------|--------------|--------------|--------------|--------------|---------------|
D||--8----5--|--8----3------|--------------|--------------|--------------|---------------|
A||--8----5--|--8----3------|--------------|--------------|--------------|---------------|
E||--8----5--|--8----3------|--------------|--------------|--------------|---------------|


[Chorus] 

E||----------|--------------|--------------|--------------|--------------|---------------|
B||----------|--------------|--------------|--------------|--------------|---------------|
G||-------3--3--------x-5--5|--------3--3--|--------------|--------------|---------------|
D||-0--0--3--3--5--5--x-5--5|--0--0--3--3--5--5---10--8--7|--------------|---------------|
A||-0--0--1--1--5--5--x-3--3|--0--0--1--1--5--5---10--8--7|--------------|---------------|
E||-0--0-----|--3--3--------|--0--0--------3--3---10--8--7|--------------|---------------|

E||----------|--------------|--------------|--------------|--------------|---------------|
B||----------|--------------|--------------|--------------|--------------|---------------|
G||-------3--3--------x-5--5|--------3--3--|--------------|--------------|---------------|
D||-0--0--3--3--5--5--x-5--5|--0--0--3--3--5--5---10--8--7|---8----5----8|---3-----------|
A||-0--0--1--1--5--5--x-3--3|--0--0--1--1--5--5---10--8--7|---8----5----8|---3-----------|
E||-0--0-----|--3--3--------|--0--0--------3--3---10--8--7|---8----5----8|---3-----------|


[Interlude]  

(First time palm muted)

E||----------|--------------|--------------|--------------|--------------|---------------|
B||----------|--------------|--------------|--------------|--------------|---------------|
G||----------|--------------|--------------|--------------|--------------|---------------|
D||----------|--------------|--------------|--------------|--------------|---------------|
A||----------|--------------|--------------|-------3h5p3--|--------------|---------------|
E||-0--0-3p0-|--0--0---5p0--|-0--0---3p0---|0--0----------|--------------|---------------|
                                                                                           x2
E||----------|--------------|--------------|--------------|--------------|---------------|
B||----------|--------------|--------------|--------------|--------------|---------------|
G||----------|--------------|--------------|--------------|--------------|---------------|
D||----------|--------------|--------------|--------------|--------------|---------------|
A||----------|--------------|--------------|-------8-5-3--|--------------|---------------|
E||-0--0-3p0-|--0--0---5p0--|-0--0---3p0---|0--0----------|--------------|---------------|


[Bridge]
 
E||----------|--------------|--------------|--------------|--------------|---------------|
B||----------|--------------|--------------|--------------|--------------|---------------|
G||----------|7/5/7---------|-----7/5/7----|--------------|--------------|---------------|
D||--8----5--|7/5/7-5---3--5|-3---7/5/7—5--3—5-------8---3|--------------|---------------|
A||--8----5--|5/3/5-5---3--5|-3---5/3/5-5--3—5-------8---3|--------------|---------------|
E||--8----5--|------3---3--5|-3---------5--3—5-------8---3|--------------|---------------|


[Interlude]

(Very quite)

E||----------|--------------|--------------|--------------|--------------|---------------|
B||----------|--------------|--------------|--------------|--------------|---------------|
G||-7/5/7----|--------------|7/5/7---------|----7/5/7-----|--------------|5--------------|
D||-7/5/7-5--|3--5--3-------|7/5/7—5--3—5--|----7/5/7-5--3|5-3--3-5-3—-3-|5--------------|
A||-5/3/5-5--|3--5--3-------|5/3/5-5--3—5--|----5/3/5-5--3|5-3--3-5-3--3-|3--------------|
E||-------5--|3--5--3-------|------5--3—5--|----------5--3|5-3--3-5-3--3-|---------------|


[Chorus] 

E||----------|--------------|--------------|--------------|--------------|---------------|
B||----------|--------------|--------------|--------------|--------------|---------------|
G||-------3--3--------x-5--5|--------3--3--|--------------|--------------|---------------|
D||-0--0--3--3--5--5--x-5--5|--0--0--3--3--5--5---10--8--7|--------------|---------------|
A||-0--0--1--1--5--5--x-3--3|--0--0--1--1--5--5---10--8--7|--------------|---------------|
E||-0--0-----|--3--3--------|--0--0--------3--3---10--8--7|--------------|---------------|

E||----------|--------------|--------------|--------------|--------------|---------------|
B||----------|--------------|--------------|--------------|--------------|---------------|
G||-------3--3--------x-5--5|--------3--3--|--------------|--------------|---------------|
D||-0--0--3--3--5--5--x-5--5|--0--0--3--3--5--5---10--8--7|---8----5----8|---3-----------|
A||-0--0--1--1--5--5--x-3--3|--0--0--1--1--5--5---10--8--7|---8----5----8|---3-----------|
E||-0--0-----|--3--3--------|--0--0--------3--3---10--8--7|---8----5----8|---3-----------|


[Outro]

E||----------|--------------|--------------|--------------|--------------|---------------|
B||----------|--------------|--------------|--------------|--------------|---------------|
G||-7/5/7----|--------------|7/5/7---------|----7/5/7-----|--------------|5--------------|
D||-7/5/7-5--|3--5--3-------|7/5/7—5--3—5--|----7/5/7-5--3|5-3--3-5-3—-3-|5--------------|
A||-5/3/5-5--|3--5--3-------|5/3/5-5--3—5--|----5/3/5-5--3|5-3--3-5-3--3-|3--------------|
E||-------5--|3--5--3-------|------5--3—5--|----------5--3|5-3--3-5-3--3-|---------------|

E||----------|--------------|--------------|--------------|--------------|---------------|
B||----------|--------------|--------------|--------------|--------------|---------------|
G||-7/5/7----|--------------|7/5/7---------|----7/5/7-----|--------------|5--------------|
D||-7/5/7-5--|3--5--3-------|7/5/7—5--3—5--|----7/5/7-5--3|5-3--3-5-3—-3-|5--------------|
A||-5/3/5-5--|3--5--3-------|5/3/5-5--3—5--|----5/3/5-5--3|5-3--3-5-3--3-|3--------------|
E||-------5--|3--5--3-------|------5--3—5--|----------5--3|5-3--3-5-3--3-|---------------|



************************************

| x  Dead note
| h  Hammer-on
| p  Pull-off
| /  Slide up

************************************
Suggest correction
Creating personal tab
Creating personal tab
You can edit any tab online and save it as your Personal.

You can edit, replace or remove any tab part or add personal notes – all changes will be seen only by you.

Personal tabs can be accessed anytime from any device, even offline.
Learn more »
Give kudos to tab author, rate the tab!
1 2 3 4 5
comments
print report bad tab
guest
You may want to rate the tab now too:
select rating
Wanna post a correction for this tab? Suggest correction