Oops, an error
Loading. Please wait.

I Laid My Trophies Down tab

217 views 1 this week
3 commentsread comments
1 2 3 4 5
3 more votes to show rating
add to favorites
×
Save as Personal and add changes to this tab that will be seen only by you. Learn more ›
×
You can save this tab as Personal to edit and correct it or add notes. All changes will be seen only by you. Learn more »
launch autoscroll
font size
0
reset
how to read this tab
guitar tuner
edit
Autoscroll
slow
fast
+/-
esc
set tempo
stop
Author
Difficulty
   E                         A                B                  E
e|-4\2-0-----------0--0----|----------0-----|------------------|-7\5-----------------|
B|-----------------------4-|-2------------0-|------------------|-9\7-9---------9-9-7-|
G|---------------1---------|----------------|--------4\1-------|-----9---------9-9-7-|
D|-------------2-----------|--------2-------|---4-6------4---1-|---------------------|
A|-----------2-------------|----0-2---------|-2------------2---|------------11-------|
E|-------0-0----------0----|------------0---|------------------|--------0-7----------|

   A              B                        F#m            C#m           B
e|------------0-|----------------------4-|-5--------4-2-|-4-------4---|-----------------------4---|
B|-5------0-----|-4-----4-5-4-7------7---|-------2------|-----5-------|-7-----4-7----7------7-----|
G|-6------------|------------------------|--------------|-------------|---------------------------|
D|----------2---|-----4------------4-----|-----4--------|---6---6-----|-----4-----4-------4-------|
A|----0-2-------|---6------------6-------|---4----------|-4---------7-|---6-------------6---------|
E|--------------|-7-----------7----------|-2------------|-------------|-7------------7------------|

   F#m           C#m            B                       E
e|-5-------4-2-|-4-------4----|-----------------------|-----------7----|
B|-------2-----|-----5--------|-7-----4-7---7---------|--9-------------|
G|-------------|--------------|--------------------9--|--9------9------|
D|-----4-------|---6---6------|-----4-----4-----4-----|----------------|
A|---4---------|-4---------7--|---6-----------6-------|-11-7-11-----7--|
E|-2-----------|--------------|-7-----------7---------|--0-------------|

   A             E7            A           E                A
e|-9-------7---|-4-------2p0-|-----------|------7---------|-9-------7-------|
B|-------5-----|-------3-----|-2-------0-|--9-----------9-|-------5---------|
G|-------------|-----1-------|-2---------|--9---------9---|-----------------|
D|-----7-------|-------------|------2----|----------------|-----7-----------|
A|---7-------7-|---2---------|-0-2-------|-11-----11------|---7-------------|
E|-5-----------|-0-----------|-----------|--0-7-----------|-5---------------|

   Bsus4                           E               A             C#m
e|-2-------------2-|-------------|------7--------|-9---------7-|-12----11------9--|
B|-------------5---|-5---2---5---|--9----------9-|-----5---5---|-------------9----|
G|-----4-----4-----|-------------|--9--------9---|-------------|------------------|
D|---4-----4-------|---2---2---2-|---------------|---7---7-----|----11----11------|
A|-2-----2---------|-4-----------|-11-----11-----|-------------|------------------|
E|-----------------|-------------|--0-7----------|-5-----------|--9---------------|

   A             C#m             A                E             B         
e|-9-----------|-12----11----9-|-9---------5----|-----7---7---|---------0------|
B|------5----5-|--------9----9-|-----5---5------|-9---------9-|-7----------2---|
G|-------------|---------------|----------------|-------------|----------------|
D|---7-----7---|----11----11---|---7---7--------|-------------|-----9----------|
A|-------------|---------------|-------------7--|---7---7-----|---9--------4---|
E|-5-----------|--9------------|-5--------------|-0---0-------|-7--------------|

   E                       E                   A                B
e|-0-------------0-------|-4\2-0-------0-0---|----------0-----|---------------------|       
B|-----------------------|-----------------4-|-2------------0-|---------------------|
G|-------------4---------|-----------1-------|----------------|--------4\1----------|
D|-----2-1---4-----------|---------2---------|--------2-------|---4-6------4---1----|
A|---2--------------2----|-------------------|----0-2---------|-2------------2------|
E|-0-------------0-------|-------0-------0---|------------0---|---------------------|

   E                    A           B                      C#m              A
e|-7\5----------------|---------0-|----------------------|-12----------11-|-9-------5---|
B|-9\7-9--------9-9-7-|-5---------|-4-----4-5----7-----4-|-----------9----|-------5-----|
G|-----9--------9-9-7-|-6---------|----------------------|----------------|-------------|
D|--------------------|-------2---|-----4-----4------4---|-------11-------|-----7-------|
A|-----------11-------|---0-2-----|---6------------6-----|----11----------|---7-------7-|
E|-------0-7----------|-----------|-7------------7-------|--9-------------|-5-----------|

   E               Bsus4           C#m                A             E
e|-----7---------|---------------|-12----11-------9-|-9-------5---|-2/4-------4-0--|  
B|-9---------9---|-7-------------|--------------9---|-------5-----|-------0--------|
G|-------------9-|-----------9---|------------------|-------------|----------------|
D|-----9---9-----|-----9---9-----|----------11------|-----7-------|-----2---2------|
A|---7---7-------|---9---9-----7-|----11------------|---7-------7-|----------------|
E|-0-------------|-7-------------|--9---------------|-5-----------|-0--------------|

   Bsus4          E                   E            A            E7
e|-2------------|-0-----------0-----|--------7---|-9------7---|-4------2p0--|
B|---------5-2--|-------------------|-9------9---|-5------5---|-3-----------|
G|-----4--------|-----------4-------|-9----9-9---|------------|------1------|
D|---4----2-----|-----2-1-4---------|------------|-----7------|-------------|
A|-2---------4--|---2-----------2-2-|-7-11-----7-|---7------7-|----2--------|
E|--------------|-0-----------0-----|-7----------|-5----------|-0-----------|

   A         E               A             Bsus4                    E
e|---------|-----7---------|-9-------7---|-2-------2--------------|------7---------|
B|-2-----0-|-9---9-------9-|-5-----5-----|-------5---5---2----5---|--9---9---------|
G|---------|-9---9-------9-|-------------|-----4------------------|--9---9-------9-|
D|-----2---|---------------|-----7-------|---4---------2----2---2-|----------------|
A|-0-2-----|-7--------11---|---7-------7-|-2---------4------------|-11-------11----|
E|---------|-0-7---7-------|-5-----------|------------------------|--0-7---7-------|

   A           C#m                A           C#m              A
e|-9-------7-|-12----11-------9-|-9-------9-|-12-----11----9-|-9--------7---|
B|-5-----5---|--------------9---|-------5---|----------------|-5-----5------|
G|-----------|------------------|-----------|----------------|--------------|
D|-----7-----|----11----11------|-----7-----|-----11----11---|-----7------7-|
A|---7-------|------------------|---7-------|----------------|---7----------|
E|-5---------|--9---------------|-5---------|--9-------------|-5------------|

   E                  Bsus4             E
e|--------------0---|-2---------------|-0------------0----|
B|-9-------12p9-----|------------5-2--|--------------0----|
G|------------------|-----4----4------|-----------4--1----|
D|-----9------------|---4----4--------|-----2-1-4----2----|
A|---7---7----------|-2------------4--|---2----------2----|
E|-0----------------|-----------------|-0------------0----|


************************************

| \  Slide down
| p  Pull-off
| /  Slide up

************************************

            
            
Suggest correction
Creating personal tab
Creating personal tab
You can edit any tab online and save it as your Personal.

You can edit, replace or remove any tab part or add personal notes – all changes will be seen only by you.

Personal tabs can be accessed anytime from any device, even offline.
Learn more »
Give kudos to tab author, rate the tab!
1 2 3 4 5
comments
print report bad tab
3 comments total.
0 reply
huffpuffthree 252 Feb 05, 2017 10:28 AM

Wow. Hi, requester here. Thank you soooo much for tabbing this. I literally had no hope of getting this song tabbed given that it's not on YouTube and this guy is super unknown

0 reply
huffpuffthree 252 Feb 05, 2017 10:32 AM

Wow. Hi, requester here. Thank you soooo much for tabbing this. I literally had no hope of getting this song tabbed given that it's not on YouTube and this guy is super unknown and also a Christian artist. You a Christian, bruh? I'm planning on doing this song for a 'Regional Student Convention' (kinda a competition) under 'School of Tomorrow.' I had just decided to stop being stubborn and just choose another song when I received the email that you tabbed this. This is truly a gift from God. Thank you so much!!

0 reply
jicp1 360 Feb 06, 2017 05:19 PM

You're welcome, I hope this tab helps you and thank you for your comment

guest
You may want to rate the tab now too:
select rating
Wanna post a correction for this tab? Suggest correction