Oops, an error
Loading. Please wait.

Bron Of The Waves Tab

by Absu
1,246 views 3 this week
no commentswrite comment
1 2 3 4 5
please rate
add to favorites
launch autoscroll
font size
0
reset
how to read this tab
guitar tuner
Autoscroll
slow
fast
+/-
esc
set tempo
stop
Help us to improve Ultimate-Guitar.com Take our survey!
×
Contributor
Difficulty
Tuning
vash_08 402
novice
D A D G B E
-----------------------------------------------------------------
Bron (Of the Waves) - Absu
-----------------------------------------------------------------
Tabbed by: Vash_08
Email: vash1256@gmail.com

Tuning: Drop D (DADGBE)

Part 1

e|-2-------------------------------------------------------------|
B|-3-------------------------------------------------------------|
G|-2--------2--0h2p0---------------------------------------------|
D|-0-----0------------4--5--4h5p4--2--4-2-0----------------------|
A|----0----------------------------------------------------------|
D|---------------------------------------------------------------|

e|-2-------------------------------------------------------------|
B|-3-------------------------------------------------------------|
G|-2--------2--0h2p0---------------------------------------------|
D|-0-----0------------4--5--0--2--4------------------------------|
A|----0----------------------------------------------------------|
D|---------------------------------------------------------------|

e|-2-------------------------------------------------------------|
B|-3-------------------------------------------------------------|
G|-2--------2--0h2p0-----------------------------0---------------|
D|-0-----0------------4--5--4h5p4--2--4-2-0----2------0----------|
A|----0--------------------------------------3------2------------|
D|-------------------------------------------------------3^------|

e|-2-------------------------------------------------------------|
B|-3-------------------------------------------------------------|
G|-2--------2--0h2p0---------------------------------------------|
D|-0-----0------------4--5--4h5p4--2--4-2-0----------------------|
A|----0----------------------------------------------------------|
D|-0-------------------------------------------------------------|

e|-2-------------------------------------------------------------|
B|-3-------------------------------------------------------------|
G|-2--------2--0h2p0---------------------------------------------|
D|-0-----0------------4--5--0--2--4--5--4------------------------|
A|----0----------------------------------------------------------|
D|---------------------------------------------------------------|

e|-2-------------------------------------------------------------|
B|-3-----------------------------------------------------------7+|
G|-2--------2--0h2p0-----------------------------0-------------7+|
D|-0-----0------------4--5--4h5p4--2--4-2-0----2------0--------7+|
A|----0--------------------------------------3------2------------|
D|------------------------------------------------------3^-0-7+--|



Part 2 (Listen for Strumming)

e|----5-----3-----2-----3--2-------------------------------------|
B|----3-----3-----3-----3--3-------------------------------------|
G|----0-----2-----2-----2--2-------------------------------------|
D|----0-----0-----0-----0--0-------------------------------------|
A|---------------------------------------------------------------|
D|---------------------------------------------------------------| (x3)
 

(Not exactly what he's playing, but I couldn't hear it clear enough)
e|---------------------------------------------------------------|
B|---------------------------------7+----------------------------|
G|---------0-----------------------7+----------------------------|
D|-------2-----------0-------------7+----------------------------|
A|-0h2h3------2h3p2----------------------------------------------|
D|----------------------3^--0---7+-------------------------------|


Play Part 2 Again



Part 3 (Listen for Strumming)

e|---3----2----0----2--------------------------------------------|
B|---3----3----3----3--------------------------------------------|
G|---2----2----2----2--------------------------------------------|
D|---0----0----0----0--------------------------------------------|
A|---------------------------------------------------------------|
D|---------------------------------------------------------------| (x3)

e|---3-3-3-3-3-3--5-5-5-5---10-10-10-10-10-10--12-12-12-12-------|
B|---3-3-3-3-3-3--3-3-3-3---10-10-10-10-10-10--10-10-10-10-------|
G|---0-0-0-0-0-0--0-0-0-0----------------------------------------|
D|---0-0-0-0-0-0--0-0-0-0----------------------------------------|
A|---------------------------------------------------------------|
D|---------------------------------------------------------------|



Play Part 1 Again



-If you find any mistakes or corrections or anything, please email me. Thanks.


| h  hammer-on
| p  pull-off
| +  harmonic
| ^  bend
Suggest correction What's this?
You can suggest a correction to this tab. Community and Mods will review your correction and vote to approve or reject it.
comments
We did not receive enough feedback on this tab! Please rate:
print report bad tab
1 2 3 4 5
I want to post or [tab]
guest
You may want to rate the tab now too:
select rating
Please do not post tabs as comments. Select "correction" instead!