Oops, an error
Loading. Please wait.

Envoi Tab

version 1
version 1

Whole song

Interactive

9,157 views 1 this week
no commentswrite comment
1 2 3 4 5
please rate
add to favorites
launch autoscroll
font size
0
reset
how to read this tab
guitar tuner
Autoscroll
slow
fast
+/-
esc
set tempo
stop
Help us to improve Ultimate-Guitar.com Take our survey!
×
Contributor
Difficulty
Hanzlman 102
novice
Title: Envoi
Artist: Absynthe Minded
Album: Absynthe Minded
Tabber: David Depoortere
Tempo = 120


     n           n        V  n     n     n     n        
E ||-0-----------0--------0--0-----3-----2-----1L------|
B ||-1-----------1--------1--1-----3-----2-----1L------|
G ||o2-----------2--------2--2-----4-----3-----2L------|
D ||o2-----------2--------2--2-----5-----4-----3L------|
A ||-0-----------0--------0--0-----5-----4-----3L------|
E ||-------------------------------3-----2-----1L------|

        n     n     n  V  n     n     n     n         
--1-----1-----1-----1--1--1-----1-----1-----1------|||
--1-----1-----1-----1--1--1-----1-----1-----1------|||
--2-----2-----2-----2--2--2-----2-----2-----2-----o|||
--3-----3-----3-----3--3--3-----3-----3-----3-----o|||
--3-----3-----3-----3--3--3-----3-----3-----3------|||
--1-----1-----1-----1--1--1-----1-----1-----1------|||

 n           n        V  n     n     n     n        
-0-----------0--------0--0-----0-----0-----0L------|
-1-----------1--------1--1-----1-----1-----1L------|
o2-----------2--------2--2-----2-----2-----2L------|
o2-----------2--------2--2-----2-----2-----3L------|
-0-----------0--------0--0-----0-----0-----3L------|
-------------------------------------------1L------|

        n     n     n  V  n     n     n     n        
--0-----0-----0-----0--0--0-----0-----0-----0-------|
--1-----1-----1-----1--1--1-----1-----1-----1-------|
--2-----2-----2-----2--2--2-----2-----2-----2-------|
--3-----3-----3-----3--3--3-----3-----3-----3-------|
--3-----3-----3-----3--3--3-----3-----3-----3-------|
--1-----1-----1-----1--1--1-----1-----1-----1-------|

  n           n        V  n     n     n     n        
--0-----------0--------0--0-----0-----0-----0-------|
--1-----------1--------1--1-----1-----1-----1-------|
--0-----------0--------0--0-----0-----0-----0-------|
--2-----------2--------2--2-----2-----2-----2-------|
--3-----------3--------3--3-----3-----3-----3-------|
----------------------------------------------------|

  n     n     n     n  V  n     n     n               
--0-----0-----0-----0--0--0-----0-----0------------|||
--1-----1-----1-----1--1--1-----1-----1------------|||
--0-----0-----0-----0--0--0-----0-----0-----------o|||
--2-----2-----2-----2--2--2-----2-----2-----------o|||
--3-----3-----3-----3--3--3-----3-----3------------|||
---------------------------------------------------|||

 n           n        V  n     n     n     n        
-0-----------0--------0--0-----0-----0-----1L------|
-1-----------1--------1--1-----1-----1-----1L------|
o2-----------2--------2--2-----2-----2-----2L------|
o2-----------2--------2--2-----2-----2-----3L------|
-0-----------0--------0--0-----0-----0-----3L------|
-------------------------------------------1L------|

        n     n     n  V  n     n     n     n        
--1-----1-----1-----1--1--1-----1-----1-----1-------|
--1-----1-----1-----1--1--1-----1-----1-----1-------|
--2-----2-----2-----2--2--2-----2-----2-----2-------|
--3-----3-----3-----3--3--3-----3-----3-----3-------|
--3-----3-----3-----3--3--3-----3-----3-----3-------|
--1-----1-----1-----1--1--1-----1-----1-----1-------|

  n           n        V  n     n     n     n        
--0-----------0--------0--0-----0-----0-----3-------|
--1-----------1--------1--1-----1-----1-----3-------|
--0-----------0--------0--0-----0-----0-----0-------|
--2-----------2--------2--2-----2-----2-----0-------|
--3-----------3--------3--3-----3-----3-----2-------|
--------------------------------------------3-------|

  n     n     n     n  V  n     n     n     n         
--3-----3-----3-----3--3--3-----3-----3-----3------|||
--3-----3-----3-----3--3--3-----3-----3-----3------|||
--0-----0-----0-----0--0--0-----0-----0-----0-----o|||
--0-----0-----0-----0--0--0-----0-----0-----0-----o|||
--2-----2-----2-----2--2--2-----2-----2-----2------|||
--3-----3-----3-----3--3--3-----3-----3-----3------|||

 n           n        V  n     n     n     n        
-0-----------0--------0--0-----3-----2-----1L------|
-1-----------1--------1--1-----3-----2-----1L------|
o2-----------2--------2--2-----4-----3-----2L------|
o2-----------2--------2--2-----5-----4-----3L------|
-0-----------0--------0--0-----5-----4-----3L------|
-------------------------------3-----2-----1L------|

        n     n     n  V  n     n     n     n         
--1-----1-----1-----1--1--1-----1-----1-----1------|||
--1-----1-----1-----1--1--1-----1-----1-----1------|||
--2-----2-----2-----2--2--2-----2-----2-----2-----o|||
--3-----3-----3-----3--3--3-----3-----3-----3-----o|||
--3-----3-----3-----3--3--3-----3-----3-----3------|||
--1-----1-----1-----1--1--1-----1-----1-----1------|||

 n           n        V  n     n     n     n        
-0-----------0--------0--0-----0-----0-----0L------|
-1-----------1--------1--1-----1-----1-----1L------|
o2-----------2--------2--2-----2-----2-----2L------|
o2-----------2--------2--2-----2-----2-----3L------|
-0-----------0--------0--0-----0-----0-----3L------|
-------------------------------------------1L------|

        n     n     n  V  n     n     n     n        
--0-----0-----0-----0--0--0-----0-----0-----0-------|
--1-----1-----1-----1--1--1-----1-----1-----1-------|
--2-----2-----2-----2--2--2-----2-----2-----2-------|
--3-----3-----3-----3--3--3-----3-----3-----3-------|
--3-----3-----3-----3--3--3-----3-----3-----3-------|
--1-----1-----1-----1--1--1-----1-----1-----1-------|

  n           n        V  n     n     n     n        
--0-----------0--------0--0-----0-----0-----0-------|
--1-----------1--------1--1-----1-----1-----1-------|
--0-----------0--------0--0-----0-----0-----0-------|
--2-----------2--------2--2-----2-----2-----2-------|
--3-----------3--------3--3-----3-----3-----3-------|
----------------------------------------------------|

  n     n     n     n  V  n     n     n               
--0-----0-----0-----0--0--0-----0-----0------------|||
--1-----1-----1-----1--1--1-----1-----1------------|||
--0-----0-----0-----0--0--0-----0-----0-----------o|||
--2-----2-----2-----2--2--2-----2-----2-----------o|||
--3-----3-----3-----3--3--3-----3-----3------------|||
---------------------------------------------------|||

 n           n        V  n     n     n     n        
-0-----------0--------0--0-----0-----0-----1L------|
-1-----------1--------1--1-----1-----1-----1L------|
o2-----------2--------2--2-----2-----2-----2L------|
o2-----------2--------2--2-----2-----2-----3L------|
-0-----------0--------0--0-----0-----0-----3L------|
-------------------------------------------1L------|

        n     n     n  V  n     n     n     n        
--1-----1-----1-----1--1--1-----1-----1-----1-------|
--1-----1-----1-----1--1--1-----1-----1-----1-------|
--2-----2-----2-----2--2--2-----2-----2-----2-------|
--3-----3-----3-----3--3--3-----3-----3-----3-------|
--3-----3-----3-----3--3--3-----3-----3-----3-------|
--1-----1-----1-----1--1--1-----1-----1-----1-------|

  n           n        V  n     n     n     n        
--0-----------0--------0--0-----0-----0-----3-------|
--1-----------1--------1--1-----1-----1-----3-------|
--0-----------0--------0--0-----0-----0-----0-------|
--2-----------2--------2--2-----2-----2-----0-------|
--3-----------3--------3--3-----3-----3-----2-------|
--------------------------------------------3-------|

  n     n     n     n  V  n     n     n     n        
--3-----3-----3-----3--3--3-----3-----3-----3------||
--3-----3-----3-----3--3--3-----3-----3-----3------||
--0-----0-----0-----0--0--0-----0-----0-----0-----o||
--0-----0-----0-----0--0--0-----0-----0-----0-----o||
--2-----2-----2-----2--2--2-----2-----2-----2------||
--3-----3-----3-----3--3--3-----3-----3-----3------||

  n           n        V  n     n     n     n        
--0-----------0--------0--0-----3-----2-----1L------|
--1-----------1--------1--1-----3-----2-----1L------|
--2-----------2--------2--2-----4-----3-----2L------|
--2-----------2--------2--2-----5-----4-----3L------|
--0-----------0--------0--0-----5-----4-----3L------|
--------------------------------3-----2-----1L------|

        n     n     n  V  n     n     n     n        
--1-----1-----1-----1--1--1-----1-----1-----1-------|
--1-----1-----1-----1--1--1-----1-----1-----1-------|
--2-----2-----2-----2--2--2-----2-----2-----2-------|
--3-----3-----3-----3--3--3-----3-----3-----3-------|
--3-----3-----3-----3--3--3-----3-----3-----3-------|
--1-----1-----1-----1--1--1-----1-----1-----1-------|

  n           n        V  n     n     n     n        
--0-----------0--------0--0-----3-----2-----1L------|
--1-----------1--------1--1-----3-----2-----1L------|
--2-----------2--------2--2-----4-----3-----2L------|
--2-----------2--------2--2-----5-----4-----3L------|
--0-----------0--------0--0-----5-----4-----3L------|
--------------------------------3-----2-----1L------|

        n     n     n  V  n     n     n     n        
--1-----1-----1-----1--1--1-----1-----1-----1-------|
--1-----1-----1-----1--1--1-----1-----1-----1-------|
--2-----2-----2-----2--2--2-----2-----2-----2-------|
--3-----3-----3-----3--3--3-----3-----3-----3-------|
--3-----3-----3-----3--3--3-----3-----3-----3-------|
--1-----1-----1-----1--1--1-----1-----1-----1-------|

  n           n        V  n     n     n     n        
--0-----------0--------0--0-----3-----2-----1L------|
--1-----------1--------1--1-----3-----2-----1L------|
--2-----------2--------2--2-----4-----3-----2L------|
--2-----------2--------2--2-----5-----4-----3L------|
--0-----------0--------0--0-----5-----4-----3L------|
--------------------------------3-----2-----1L------|

        n     n     n  V  n     n     n     n        
--1-----1-----1-----1--1--1-----1-----1-----1-------|
--1-----1-----1-----1--1--1-----1-----1-----1-------|
--2-----2-----2-----2--2--2-----2-----2-----2-------|
--3-----3-----3-----3--3--3-----3-----3-----3-------|
--3-----3-----3-----3--3--3-----3-----3-----3-------|
--1-----1-----1-----1--1--1-----1-----1-----1-------|

  n           n        V  n     n     n     n        
--0-----------0--------0--0-----3-----2-----1L------|
--1-----------1--------1--1-----3-----2-----1L------|
--2-----------2--------2--2-----4-----3-----2L------|
--2-----------2--------2--2-----5-----4-----3L------|
--0-----------0--------0--0-----5-----4-----3L------|
--------------------------------3-----2-----1L------|

        n     n     n  V  n     n     n     n        
--1-----1-----1-----1--1--1-----1-----1-----1-------|
--1-----1-----1-----1--1--1-----1-----1-----1-------|
--2-----2-----2-----2--2--2-----2-----2-----2-------|
--3-----3-----3-----3--3--3-----3-----3-----3-------|
--3-----3-----3-----3--3--3-----3-----3-----3-------|
--1-----1-----1-----1--1--1-----1-----1-----1-------|

  n           n        V  n     n     n     n        
--0-----------0--------0--0-----0-----0-----0L------|
--1-----------1--------1--1-----1-----1-----1L------|
--2-----------2--------2--2-----2-----2-----2L------|
--2-----------2--------2--2-----2-----2-----3L------|
--0-----------0--------0--0-----0-----0-----3L------|
--------------------------------------------1L------|

        n     n     n  V  n     n     n     n        
--0-----0-----0-----0--0--0-----0-----0-----0-------|
--1-----1-----1-----1--1--1-----1-----1-----1-------|
--2-----2-----2-----2--2--2-----2-----2-----2-------|
--3-----3-----3-----3--3--3-----3-----3-----3-------|
--3-----3-----3-----3--3--3-----3-----3-----3-------|
--1-----1-----1-----1--1--1-----1-----1-----1-------|

  n           n        V  n     n     n     n        
--0-----------0--------0--0-----0-----0-----0-------|
--1-----------1--------1--1-----1-----1-----1-------|
--0-----------0--------0--0-----0-----0-----0-------|
--2-----------2--------2--2-----2-----2-----2-------|
--3-----------3--------3--3-----3-----3-----3-------|
----------------------------------------------------|

  n     n     n     n  V  n     n     n              
--0-----0-----0-----0--0--0-----0-----0-------------|
--1-----1-----1-----1--1--1-----1-----1-------------|
--0-----0-----0-----0--0--0-----0-----0-------------|
--2-----2-----2-----2--2--2-----2-----2-------------|
--3-----3-----3-----3--3--3-----3-----3-------------|
----------------------------------------------------|

  n           n        V  n     n     n     n        
--0-----------0--------0--0-----0-----0-----0L------|
--1-----------1--------1--1-----1-----1-----1L------|
--2-----------2--------2--2-----2-----2-----2L------|
--2-----------2--------2--2-----2-----2-----3L------|
--0-----------0--------0--0-----0-----0-----3L------|
--------------------------------------------1L------|

        n     n     n  V  n     n     n     n        
--0-----0-----0-----0--0--0-----0-----0-----0-------|
--1-----1-----1-----1--1--1-----1-----1-----1-------|
--2-----2-----2-----2--2--2-----2-----2-----2-------|
--3-----3-----3-----3--3--3-----3-----3-----3-------|
--3-----3-----3-----3--3--3-----3-----3-----3-------|
--1-----1-----1-----1--1--1-----1-----1-----1-------|

  n           n        V  n     n     n     n        
--0-----------0--------0--0-----0-----0-----0-------|
--1-----------1--------1--1-----1-----1-----1-------|
--0-----------0--------0--0-----0-----0-----0-------|
--2-----------2--------2--2-----2-----2-----2-------|
--3-----------3--------3--3-----3-----3-----3-------|
----------------------------------------------------|

  n     n     n     n  V  n     n     n              
--0-----0-----0-----0--0--0-----0-----0-------------|
--1-----1-----1-----1--1--1-----1-----1-------------|
--0-----0-----0-----0--0--0-----0-----0-------------|
--2-----2-----2-----2--2--2-----2-----2-------------|
--3-----3-----3-----3--3--3-----3-----3-------------|
----------------------------------------------------|

  n           n        V  n     n     n     n        
--0-----------0--------0--0-----0-----0-----0L------|
--1-----------1--------1--1-----1-----1-----1L------|
--2-----------2--------2--2-----2-----2-----2L------|
--2-----------2--------2--2-----2-----2-----3L------|
--0-----------0--------0--0-----0-----0-----3L------|
--------------------------------------------1L------|

        n     n     n  V  n     n     n     n        
--0-----0-----0-----0--0--0-----0-----0-----0-------|
--1-----1-----1-----1--1--1-----1-----1-----1-------|
--2-----2-----2-----2--2--2-----2-----2-----2-------|
--3-----3-----3-----3--3--3-----3-----3-----3-------|
--3-----3-----3-----3--3--3-----3-----3-----3-------|
--1-----1-----1-----1--1--1-----1-----1-----1-------|

  n           n        V  n     n     n     n        
--0-----------0--------0--0-----0-----0-----0-------|
--1-----------1--------1--1-----1-----1-----1-------|
--0-----------0--------0--0-----0-----0-----0-------|
--2-----------2--------2--2-----2-----2-----2-------|
--3-----------3--------3--3-----3-----3-----3-------|
----------------------------------------------------|

  n     n     n     n  V  n     n     n              
--0-----0-----0-----0--0--0-----0-----0-------------|
--1-----1-----1-----1--1--1-----1-----1-------------|
--0-----0-----0-----0--0--0-----0-----0-------------|
--2-----2-----2-----2--2--2-----2-----2-------------|
--3-----3-----3-----3--3--3-----3-----3-------------|
----------------------------------------------------|

  n           n        V  n     n     n     n        
--0-----------0--------0--0-----0-----0-----0L------|
--1-----------1--------1--1-----1-----1-----1L------|
--2-----------2--------2--2-----2-----2-----2L------|
--2-----------2--------2--2-----2-----2-----3L------|
--0-----------0--------0--0-----0-----0-----3L------|
--------------------------------------------1L------|

        n     n     n  V  n     n     n     n        
--0-----0-----0-----0--0--0-----0-----0-----0-------|
--1-----1-----1-----1--1--1-----1-----1-----1-------|
--2-----2-----2-----2--2--2-----2-----2-----2-------|
--3-----3-----3-----3--3--3-----3-----3-----3-------|
--3-----3-----3-----3--3--3-----3-----3-----3-------|
--1-----1-----1-----1--1--1-----1-----1-----1-------|

  n           n        V  n     n     n     n        
--0-----------0--------0--0-----0-----0-----0-------|
--1-----------1--------1--1-----1-----1-----1-------|
--0-----------0--------0--0-----0-----0-----0-------|
--2-----------2--------2--2-----2-----2-----2-------|
--3-----------3--------3--3-----3-----3-----3-------|
----------------------------------------------------|

  n     n     n     n  V  n     n     n              
--0-----0-----0-----0--0--0-----0-----0-------------|
--1-----1-----1-----1--1--1-----1-----1-------------|
--0-----0-----0-----0--0--0-----0-----0-------------|
--2-----2-----2-----2--2--2-----2-----2-------------|
--3-----3-----3-----3--3--3-----3-----3-------------|
----------------------------------------------------|

  n           n        V  n     n     n     n        
--0-----------0--------0--0-----0-----0-----1L------|
--1-----------1--------1--1-----1-----1-----1L------|
--2-----------2--------2--2-----2-----2-----2L------|
--2-----------2--------2--2-----2-----2-----3L------|
--0-----------0--------0--0-----0-----0-----3L------|
--------------------------------------------1L------|

        n     n     n  V  n     n     n     n        
--1-----1-----1-----1--1--1-----1-----1-----1-------|
--1-----1-----1-----1--1--1-----1-----1-----1-------|
--2-----2-----2-----2--2--2-----2-----2-----2-------|
--3-----3-----3-----3--3--3-----3-----3-----3-------|
--3-----3-----3-----3--3--3-----3-----3-----3-------|
--1-----1-----1-----1--1--1-----1-----1-----1-------|

  n           n        V  n     n     n     n        
--0-----------0--------0--0-----0-----0-----3-------|
--1-----------1--------1--1-----1-----1-----3-------|
--0-----------0--------0--0-----0-----0-----0-------|
--2-----------2--------2--2-----2-----2-----0-------|
--3-----------3--------3--3-----3-----3-----2-------|
--------------------------------------------3-------|

  n     n     n     n  V  n     n     n     n         
--3-----3-----3-----3--3--3-----3-----3-----3-------||
--3-----3-----3-----3--3--3-----3-----3-----3-------||
--0-----0-----0-----0--0--0-----0-----0-----0-------||
--0-----0-----0-----0--0--0-----0-----0-----0-------||
--2-----2-----2-----2--2--2-----2-----2-----2-------||
--3-----3-----3-----3--3--3-----3-----3-----3-------||

 n           n        V  n     n     n     n        
-0-----------0--------0--0-----0-----0-----1L------|
-1-----------1--------1--1-----1-----1-----1L------|
o2-----------2--------2--2-----2-----2-----2L------|
o2-----------2--------2--2-----2-----2-----3L------|
-0-----------0--------0--0-----0-----0-----3L------|
-------------------------------------------1L------|

        n     n     n  V  n     n     n     n        
--1-----1-----1-----1--1--1-----1-----1-----1-------|
--1-----1-----1-----1--1--1-----1-----1-----1-------|
--2-----2-----2-----2--2--2-----2-----2-----2-------|
--3-----3-----3-----3--3--3-----3-----3-----3-------|
--3-----3-----3-----3--3--3-----3-----3-----3-------|
--1-----1-----1-----1--1--1-----1-----1-----1-------|

  n           n        V  n     n     n     n        
--0-----------0--------0--0-----0-----0-----3-------|
--1-----------1--------1--1-----1-----1-----3-------|
--0-----------0--------0--0-----0-----0-----0-------|
--2-----------2--------2--2-----2-----2-----0-------|
--3-----------3--------3--3-----3-----3-----2-------|
--------------------------------------------3-------|

  n     n     n     n  V  n     n     n     n         
--3-----3-----3-----3--3--3-----3-----3-----3------|||
--3-----3-----3-----3--3--3-----3-----3-----3------|||
--0-----0-----0-----0--0--0-----0-----0-----0-----o|||
--0-----0-----0-----0--0--0-----0-----0-----0-----o|||
--2-----2-----2-----2--2--2-----2-----2-----2------|||
--3-----3-----3-----3--3--3-----3-----3-----3------|||

 n           n        V  n     n     n     n        
-0-----------0--------0--0-----3-----2-----1L------|
-1-----------1--------1--1-----3-----2-----1L------|
o2-----------2--------2--2-----4-----3-----2L------|
o2-----------2--------2--2-----5-----4-----3L------|
-0-----------0--------0--0-----5-----4-----3L------|
-------------------------------3-----2-----1L------|

        n     n     n  V  n     n     n     n        
--1-----1-----1-----1--1--1-----1-----1-----1------||
--1-----1-----1-----1--1--1-----1-----1-----1------||
--2-----2-----2-----2--2--2-----2-----2-----2-----o||
--3-----3-----3-----3--3--3-----3-----3-----3-----o||
--3-----3-----3-----3--3--3-----3-----3-----3------||
--1-----1-----1-----1--1--1-----1-----1-----1------||

  n           n        V  n     n     n     n
--0-----------0--------0--0-----3-----2-----1L------|--1----||
--1-----------1--------1--1-----3-----2-----1L------|--1----||
--2-----------2--------2--2-----4-----3-----2L------|--2----||
--2-----------2--------2--2-----5-----4-----3L------|--3----||
--0-----------0--------0--0-----5-----4-----3L------|--3----||
--------------------------------3-----2-----1L------|--1----||
comments
We did not receive enough feedback on this tab! Please rate:
print report bad tab
1 2 3 4 5
I want to post or [tab]
guest
You may want to rate the tab now too:
select rating
Please do not post tabs as comments. Select "correction" instead!