Oops, an error
Loading. Please wait.

Shes Jivin Chords

4 views 1 this week
no commentswrite comment
1 2 3 4 5
3 more votes to show rating
add to favorites
launch autoscroll
font size
0
reset
transpose
0
reset
simplify chords
display chords
guitar tuner
Autoscroll
slow
fast
+/-
esc
set tempo
stop
Help us to improve Ultimate-Guitar.com Take our survey!
×
Author
Difficulty
intermediate
Absynthe Minded
“She's Jivin' ”
Sweet Oblivion (2002)


Tuning : Standard






[Intro]

Eb



[Verse 1]

Eb              A#7        G#7sus4    G#7    F#7sus4   F#7
I lost my money on the way to     the liquor store
Eb            A#7               G#7sus4    G#7      F#7sus4   F#7
All I want is spend some time untill   the break of dawn
    Eb              A#7                G#7sus4    G#7       F#7sus4   F#7
The joy lies in the space you're in, I tried   to blind the sun
Eb              A#7                   G#7sus4    G#7       F#7sus4   F#7
I just met this drunk brown girl, her money's    gone, her panty's   gone
      E
She's jivin'



[Verse 2]
     Eb                A#7             G#7sus4    G#7    F#7sus4   F#7
It's scarce to catch a smile from her, people     terrify her
Eb                 A#7                G#7sus4    G#7    F#7sus4   F#7
She just came here to get laid 'cause he don't   satisfy her
Eb          A#7         G#7sus4    G#7     F#7sus4   F#7
Everybody's high again, standards  sinking lower
Eb                  A#7             G#7sus4    G#7       F#7sus4   F#7
The prettiest girls are insane, her money's    gone, her panty's   gone
      E
She's jivin'
              Eb
Dirty dancin' high babe



[Outro]
Eb   B

Eb   B               Eb   B
Everybody wants a reward
Eb   B               Eb   B
Everybody wants a reward
Eb   B               Eb   B
Everybody wants a reward
Eb   B               Eb
Everybody needs a reward




Chords :

     Eb     A#7    G#7sus4   G#7   F#7sus4   F#7    E      B
e|--(6)-----6------4---------4-----2---------2------0------7----|
B|---8------6------4---------4-----2---------2------0------7----|
G|---8------7------6---------5-----4---------3------1------8----|
D|---8------6------4---------4-----2---------2------2------9----|
A|---6------8------6---------6-----4---------4------2------9----|
E|----------6------4---------4-----2---------2------0------7----|



I usually play the song with a 1/2 step down tuned guitar. Use transpose function. And the violon intro can 

be played like this :
     E
e|---0-0--0-0--0-0--0-0--0-0-0-0-0-------|
B|---0-0--0-0--0-0--0-0--0-0-0-0-0-------|
G|-------(1)---1-1--1-1--1-1-1-1-1-------|
D|-----------------------2-2-2-2-2-------|
A|-----------------------2-2-2-2-2-------|
E|-----------------------0-0-0-0-0-------|
Suggest correction
Give kudos to tab author, rate the tab!
1 2 3 4 5
comments
print report bad tab
guest
You may want to rate the tab now too:
select rating
Wanna post a correction for this tab? Suggest correction