Oops, an error
Loading. Please wait.

Stuck In Reverse Tab

575 views 1 this week
1 commentread comment
1 2 3 4 5
1 last vote to show rating
add to favorites
launch autoscroll
font size
0
reset
how to read this tab
guitar tuner
Autoscroll
slow
fast
+/-
esc
set tempo
stop
Help us to improve Ultimate-Guitar.com Take our survey!
×
Author
Difficulty
novice
Hi everybody !

Here is a nice song from absynthe minded , with an easy tab , perfect for beginners !

Hope you enjoy .

Tuning E,A,D,G,B,e


Intro

e---------------------------------------------------------------------------|
B---33333333222222220000000000000000----------------------------------------|
G---33333333222222220000000000000000----------------------------------------|
D---33333333222222220000000000000000----------------------------------------|
A---------------------------------------------------------------------------|
E---------------------------------------------------------------------------|


Main riff / from 1.10
( Instead of palm mute , you can also slide )

e---------------------------------------------------------------------------------|
B---------------------------------------------------------------------------------|
G---------------------------------------------------------------------------------|
D---5-5---xx---10--8-8----8-8--x-x-13-12-12---------------------------------------|
A---5-5---xx---10--8-8----8-8--x-x-13-12-12---------------------------------------|
E---3-3---xx---8---6-6----6-6--x-x-11-10-10---------------------------------------|

Repeating all the song

Verse :

e----------------------------------------------------------------------------|
B----------------------------------------------------------------------------|
G----------------------------------------------------------------------------|
D--8-8-8-8---7-7-7-7---5-5-5-5-5-5-5-5---------------------------------------|
A--8-8-8-8---7-7-7-7---5-5-5-5-5-5-5-5---------------------------------------|
E--6-6-6-6---5-5-5-5---3-3-3-3-3-3-3-3---------------------------------------|


Bass :
G--------------------------------------------------------------------------|
D--------------------------------------------------------------------------|
A--------------------------------------------------------------------------|
E-6-6-6-6---5-5-5-5----3-3-3-3-3-3-3-3-------------------------------------|

If you want , second guitar can make intro riff .

At  3.15 , during the clav part , makes a feed back :

e---------------------------------------------------------------------------|
B---12~ ( feed back )-------------------------------------------------------|
G---------------------------------------------------------------------------|
D---------------------------------------------------------------------------|
A---------------------------------------------------------------------------|
E---------------------------------------------------------------------------|

From 3.38 :

e---------------------------------------------------------------------------|
B----7x77----6x66---4x44----------------------------------------------------|
G----7x77----6x66---4x44----------------------------------------------------|
D----7x77----6x66---4x44----------------------------------------------------|
A---------------------------------------------------------------------------|
E---------------------------------------------------------------------------|

Then , from 4.17 :

e---------------------------------------------------------------------------|
B---------------------------------------------------------------------------|
G---3-----------------------------------------------------------------------|
D---3--(x60)----------------------------------------------------------------|
A---5-----------------------------------------------------------------------|
E---------------------------------------------------------------------------|

After , lead :

e--10fb--8fb--10v---------------------------------------------------------|
B-------------------------------------------------------------------------|
G-------------------------------------------------------------------------|
D-------------------------------------------------------------------------|
A-------------------------------------------------------------------------|
E-------------------------------------------------------------------------|

In the time , same like verse but without space :


e---------------------------------------------------------------------------|
B---------------------------------------------------------------------------|
G---------------------------------------------------------------------------|
D--88888888---33333333------55555555----------------------------------------|
A--88888888---33333333------55555555----------------------------------------|
E--66666666---55555555------33333333----------------------------------------|


The end is a feed back


Hope you enjoyed , i think this tab is 90% correct , so have fun
Suggest correction
Give kudos to tab author, rate the tab!
1 2 3 4 5
comments
print report bad tab
1 comment total.
0 reply
Terrytorium 10 Mar 29, 2014 10:05 AM

Basic is good,
though the parts from 3:38 aren't completely correct imo

guest
You may want to rate the tab now too:
select rating
Wanna post a correction for this tab? Suggest correction