Oops, an error
Loading. Please wait.

Dogs On Leads Bass Tab

version 1
version 1

Whole song

Interactive

366 views 1 this week
no commentswrite comment
1 2 3 4 5
3 more votes to show rating
add to favorites
launch autoscroll
font size
0
reset
guitar tuner
Autoscroll
slow
fast
+/-
esc
set tempo
stop
Help us to improve Ultimate-Guitar.com Take our survey!
×
#----------------------------------PLEASE NOTE---------------------------------#
#This file is the author's own work and represents their interpretation of the #
#song. You may only use this file for private study, scholarship, or research. #
#------------------------------------------------------------------------------#

DOGS ON LEADS (Bassline)
As recorded by Accept
(From the 1985 Album METAL HEART)


Transcribed by Asmogriff (ComfortablyDumb)

 Words and Music by P. Baltes, U. Dirkschneider, J. Fischer, W. Hoffmann, S. Kaufmann and Deaffy
Arranged by Accept
 

Gtr I (E A D G) - 'Untitled'


 Intro
  Q=127
 4/4
  Gtr I
  e e e e e e e e   e e e e e e e e   e e e e e e e e   e e e e e e e e
|-----------------|-----------------|-----------------|-----------------|
|-----------------|-----------------|-----------------|-----------------|
|-----------------|-----------------|-----------------|-----------------|
|-2-2-2-2-2-2-2-2-|-2-2-2-2-2-2-2-2-|-2-2-2-2-2-2-2-2-|-2-2-2-2-2-2-2-2-|


    e e e e e e e e   e e e e e e e e   e e e e e e e e  3x
||------------------|-----------------|------------------||
||o-----------------|-----------------|-----------------o||
||o-----------------|-----------------|-----------------o||
||--2-2-2-2-2-2-2-2-|-2-2-2-2-2-2-2-2-|-2-2-2-2-2-2-2-2--||


   Intro-Verse
                                       1.,2.,3.            2.
    e e e e e e e e   e e e e e e e e   e e e e e e e e  4x e e e e e e e E
||------------------|-----------------|------------------||-----------------|
||o-----------------|-----------------|-----------------o||-----------------|
||o-----------------|-----------------|-----------------o||---------------2-|
||--2-2-2-2-2-2-2-2-|-2-2-2-2-2-2-2-2-|-2-2-2-2-2-2-2-2--||-2-2-2-2-2-2-2---|


  +H..       E   H..       E   H..       E   H    Q  Q
|--------------|-------------|-------------|-------------|
|--------------|-------------|-------------|-------------|
|-(2)--------2-|-2---------2-|-2---------2-|-2----2--3---|
|--------------|-------------|-------------|-------------|


  Q.   E +Q.   E   Q.   E +Q.   E   E E E E E E Q    E Q  E E Q  E
|----------------|----------------|----------------|----------------|
|----------------|----------------|----------------|----------------|
|-4----4-(4)---4-|-4----4-(4)---4-|-4-4-4-4-4-4-4--|---4--4-4-------|
|----------------|----------------|----------------|----------------|


   Verse
                     1.,2.,3.                              4.
    e e e e e e e e   e e e e e e e e   e e e e e e e e  4x e e e e e e e E
||------------------|-----------------|------------------||-----------------|
||o-----------------|-----------------|-----------------o||-----------------|
||o-----------------|-----------------|-----------------o||---------------2-|
||--2-2-2-2-2-2-2-2-|-2-2-2-2-2-2-2-2-|-2-2-2-2-2-2-2-2--||-2-2-2-2-2-2-2---|


 Pre-Chorus
  $
  +H..       E   Q.   E +Q.   E   Q.   E +H       Q.   E E E E E
|--------------|----------------|---------------|-----------------|
|--------------|----------------|---------------|-----------------|
|-(2)--------2-|-2----2-(2)---2-|-2----2-(2)----|-2----2-2-2---3--|
|--------------|----------------|---------------|-----------------|


  Q.   E +Q.   E   Q.   E +H       Q  E E Q  Q    E E E E Q  Q
|----------------|---------------|--------------|----------------|
|----------------|---------------|--------------|----------------|
|-4----4-(4)---4-|-4----4-(4)----|-4----4-4-----|---4---4-4--0---|
|----------------|---------------|--------------|----------------|


 Chorus
  H    Q.   E   +Q   E E E E Q    H    Q.   E   +H     E Q.
|-------------|-----------------|-------------|----------------|
|-------------|-----------------|-------------|----------------|
|------0----2-|-(2)--2-0-2-4-0--|------0------|----------------|
|-2-----------|-----------------|-2---------0-|-(0)------1-----|


                        To Coda
  H    Q.   E   +Q   E E E E Q    H    Q.   E   +H     Q  Q
|-------------|-----------------|-------------|---------------|
|-------------|-----------------|-------------|---------------|
|------0----2-|-(2)--2-0-2-4-0--|------0------|---------------|
|-2-----------|-----------------|-2---------0-|-(0)----0--1---|


    e e e e e e e e   e e e e e e e e   e e e e e e e e
||------------------|-----------------|------------------||
||o-----------------|-----------------|-----------------o||
||o-----------------|-----------------|-----------------o||
||--2-2-2-2-2-2-2-2-|-2-2-2-2-2-2-2-2-|-2-2-2-2-2-2-2-2--||


   Verse
                     1.,2.,3.                              4.
                                                              D.S. al Coda
    e e e e e e e e   e e e e e e e e   e e e e e e e e  4x e e e e e e e E
||------------------|-----------------|------------------||-----------------|
||o-----------------|-----------------|-----------------o||-----------------|
||o-----------------|-----------------|-----------------o||---------------2-|
||--2-2-2-2-2-2-2-2-|-2-2-2-2-2-2-2-2-|-2-2-2-2-2-2-2-2--||-2-2-2-2-2-2-2---|


  &
  H    Q.   E   +H     E Q.     H    Q  E E   +W
|-------------|---------------|-------------|--------|
|-------------|---------------|-------------|--------|
|------0------|---------------|------0--2-2-|-(2)----|
|-2---------0-|-(0)------1----|-2-----------|--------|


 Bridge
  q  q  q  q    q  q  q  q    q  q  q  q    q  q  q  q
|-------------|-------------|-------------|--------------|
|-------------|-------------|-------------|--------------|
|-2--2--2--2--|-2--2--2--2--|-2--2--2--2--|-2--2--2--2---|
|-------------|-------------|-------------|--------------|


  q  q  q  q    q  q  q  q    q  q  q  q    q  q  q  E E
|-------------|-------------|-------------|---------------|
|-------------|-------------|-------------|---------------|
|-2--2--2--2--|-2--2--2--2--|-2--2--2--2--|-2--2--2--2-0--|
|-------------|-------------|-------------|---------------|


  q  q  q  E E   q  q  q  E E   q  q  q  E E   q  q  q  E E
|--------------|--------------|--------------|---------------|
|--------------|--------------|--------------|---------------|
|-2--2--2--2-0-|-2--2--2--2-0-|-2--2--2--2-0-|-2--2--2--2-0--|
|--------------|--------------|--------------|---------------|


  q  E E q  E E   q  E E q  E E   q  E E q  E E   q  E E q  E E
|---------------|---------------|---------------|----------------|
|---------------|---------------|---------------|----------------|
|-2--2-0-2--2-0-|-2--2-0-2--2-0-|-2--2-0-2--2-0-|-2--2-0-2--2-0--|
|---------------|---------------|---------------|----------------|


   Guitar Solo
    Q.   Q.   Q    +Q   E E E E Q    Q.   Q.   Q    +H     E Q.    3x
||---------------|-----------------|--------------|----------------||
||o--------------|-----------------|--------------|---------------o||
||o------0----2--|-(2)--2-0-2-4-0--|------0-------|---------------o||
||--2------------|-----------------|-2---------0--|-(0)------1-----||


   Out-Chorus
    H    Q.   E   +Q   E E E E Q    H    Q.   E   +H     E Q.    3x
||--------------|-----------------|-------------|----------------||
||o-------------|-----------------|-------------|---------------o||
||o------0----2-|-(2)--2-0-2-4-0--|------0------|---------------o||
||--2-----------|-----------------|-2---------0-|-(0)------1-----||


  H    Q.   E   +Q   E E E E E E   H    E E E E
|-------------|------------------|--------------*|
|-------------|------------------|--------------*|
|------0----2-|-(2)--2-0-2-4-0---|--------0-----*|
|-2-----------|----------------2-|----------0-2-*|




--------------------------------------------------------------------------------


Duration Legend
---------------
W - whole; H - half; Q - quarter; E - 8th; S - 16th; T - 32nd; X - 64th; a - acciaccatura
+ - note tied to previous; . - note dotted; .. - note double dotted
Uncapitalized letters represent notes that are staccato (1/2 duration)
Irregular groupings are notated above the duration line
Duration letters will always appear directly above the note/fret number it represents the
duration for.  Duration letters with no fret number below them represent rests.  Multi-
bar rests are notated in the form Wxn, where n is the number of bars to rest for.  Low
melody durations appear below the staff

Tablature Legend
----------------
 h   - hammer-on
 p   - pull-off
 b   - bend
 pb  - pre-bend
 r   - bend release (if no number after the r, then release immediately)
 /\  - slide into or out of (from/to "nowhere")
 s   - legato slide
 S   - shift slide
 - natural harmonic
[n]  - artificial harmonic
n(n) - tapped harmonic
 ~   - vibrato
 tr  - trill
 T   - tap
 TP  - trem. picking
 PM  - palm muting
\n/  - tremolo bar dip; n = amount to dip
 \n  - tremolo bar down
 n/  - tremolo bar up
/n\  - tremolo bar inverted dip
 =   - hold bend; also acts as connecting device for hammers/pulls
 <> - volume swell (louder/softer)
 x   - on rhythm slash represents muted slash
 o   - on rhythm slash represents single note slash

Misc Legend
-----------
 |  - bar
||  - double bar
||o - repeat start
o|| - repeat end
*|  - double bar (ending)
 :  - bar (freetime)
 $  - Segno
 &  - Coda
Tempo markers -  = BPM(8/16=s8/s16), where s8 = swing 8ths, s16 = swing 16ths

Suggest correction
Give kudos to tab author, rate the tab!
1 2 3 4 5
comments
print report bad tab
guest
You may want to rate the tab now too:
select rating
Wanna post a correction for this tab? Suggest correction