Oops, an error
Loading. Please wait.

Dont Go Stealing My Soul Away Bass Tab

version 1
version 1

Whole song

Interactive

242 views 1 this week
no commentswrite comment
1 2 3 4 5
please rate
add to favorites
launch autoscroll
font size
0
reset
guitar tuner
Tab Pro tools
  • play this tab
  • loop segment
  • change instrument
  • show fretboard
  • metronome
Autoscroll
slow
fast
+/-
esc
set tempo
stop
Contributor
                        Don't Go Stealing My Soul Away                          


                                                                          Accept
Bass
Transcribed by emad


     W                   W                   W                 
G||-------------------|-------------------|-------------------|
D||-------------------|-------------------|-------------------|
A||-------------------|-------------------|-------------------|
E||-------------------|-------------------|-------------------|


  W                   Q.     H        E     Q.     H        E   
-------------------|---------------------|---------------------|
-------------------|---------------------|---------------------|
-------------------|---------5--------L--|---------5--------L--|
-------------------|--3------------------|--3------------------|


  Q.     H        E     W                   E  E  E  E  E  E  E  E   
---------------------|-------------------|--------------------------|
---------------------|-------------------|--------------------------|
---------5--------0--|--L----------------|--5--5--5--5--5--5--5--5--|
--3------------------|-------------------|--------------------------|


  E  E  E  E  E  E  E  E     E  E  E  E  E  E  E  E   
--------------------------|--------------------------|
--------------------------|--------------------------|
--5--5--5--5--5--5--5--5--|--5--5--5--5--5--5--5--0--|
--------------------------|--------------------------|


  E  E  S. T S. T S. T E  Q       E  E  E  E  E  E  E  E   
-------------------------------|--------------------------|
-------------------------------|--------------------------|
--L--0--0----0----0----0--0----|--5--5--5--5--5--5--5--5--|
-------------------------------|--------------------------|


  E  E  E  E  E  E  E  E     E  E  E  E  E  E  E  E     W                 
--------------------------|--------------------------|-------------------|
--------------------------|--------------------------|-------------------|
--5--5--5--5--5--5--5--5--|--5--5--5--5--5--5--5-----|-------------------|
--------------------------|-----------------------0--|--L----------------|


  Q    E  Q.     Q       E  E  E  E  Q    E  E     Q    E  Q.     E  E   
----------------------|-------------------------|-----------------------|
----------------------|-------------------------|-----------------------|
----------5-----------|-----0--0----------------|----------5---------0--|
--3-------------------|-----------0--0----0--2--|--3--------------------|


  E  E  E  E  E  E  E  E     Q    E  Q.     Q       E  E  E  E  Q    E  E   
--------------------------|----------------------|-------------------------|
--------------------------|----------------------|-------------------------|
--L--0--0--0--0--0--------|----------5-----------|-----0--0----------------|
--------------------0--2--|--3-------------------|-----------0--0----0--2--|


  Q    E  Q    E  E  E     Q.     E  E  E  E  E     Q    E  Q.     Q     
------------------------|------------------------|----------------------|
------------------------|------------------------|----------------------|
----------5----5--0--0--|--L------0--0--0--------|----------5-----------|
--3---------------------|------------------0--2--|--3-------------------|


  E  E  E  E  Q    E  E     Q    E  Q.     E  E     E  E  E  E  E  E  E  E   
-------------------------|-----------------------|--------------------------|
-------------------------|-----------------------|--------------------------|
-----0--0----------------|----------5---------0--|--L--0--0--0--0--0--------|
-----------0--0----0--2--|--3--------------------|--------------------0--2--|


  Q    E  Q.     Q       E  E  E  E  Q    E  E     Q    E  Q.     E  E   
----------------------|-------------------------|-----------------------|
----------------------|-------------------------|-----------------------|
----------5-----------|-----0--0----------------|----------5---------0--|
--3-------------------|-----------0--0----0--2--|--3--------------------|


  E  E  E  E  E  E  E  S S    W                   W                 
---------------------------|-------------------|-------------------|
---------------------------|-------------------|-------------------|
--L--0--0--0--0--0--0------|-------------------|-------------------|
-----------------------0-2-|--3----------------|--2----------------|


  E  E  E  E  E  E  E  E     E  E  E  E  E  Q     E     E  E  E  E  Q    E  E   
--------------------------|--------------------------|-------------------------|
--------------------------|--------------------------|-------------------------|
--0--0--0--0--0--0--0--0--|--0--0--0--0--0-----------|--2-----2-----0-------2--|
--------------------------|-----------------5\-------|-------------------------|


  Q    E  Q    S S E  E     E  E  E  E  Q    E  E     Q    E  Q    S S E  E   
-------------------------|-------------------------|-------------------------|
-------------------------|-------------------------|-------------------------|
--L----------------5--4--|--2-----2-----5-------0--|--L----------------5--4--|
-------0--3----5-7-------|-------------------------|-------0--3----5-7-------|


  E  E  E  E  Q    E  E     Q    E  Q    S S E  E     E  E  E  E  Q    E  E   
-------------------------|-------------------------|-------------------------|
-------------------------|-------------------------|-------------------------|
--2-----2-----0-------2--|--L----------------5--4--|--2-----2-----5-------0--|
-------------------------|-------0--3----5-7-------|-------------------------|


  W                   W                   E  E  E  E  E  E  E  E   
-------------------|-------------------|--------------------------|
-------------------|-------------------|--------------------------|
--L----------------|-------------------|--5--5--5--5--5--5--5--5--|
-------------------|--3----------------|--------------------------|


  E  E  E  E  E  E  E  E     E  E  E  E  E  E  E  E   
--------------------------|--------------------------|
--------------------------|--------------------------|
--5--5--5--5--5--5--5--5--|--5--5--5--5--5--5--5--0--|
--------------------------|--------------------------|


  E  S. T S. T S. T S. T S. T S. T E     E  E  E  E  E  E  E  E   
--------------------------------------|--------------------------|
--------------------------------------|--------------------------|
--L--0----0----0----0----0----0----0--|--5--5--5--5--5--5--5--5--|
--------------------------------------|--------------------------|


  E  E  E  E  E  E  E  E     E  E  E  E  E  E  E  E     W                 
--------------------------|--------------------------|-------------------|
--------------------------|--------------------------|-------------------|
--5--5--5--5--5--5--5--5--|--5--5--5--5--5--5--5-----|-------------------|
--------------------------|-----------------------0--|--L----------------|


  Q    E  Q.     Q       E  E  E  E  Q    E  E     Q    E  Q.     E  E   
----------------------|-------------------------|-----------------------|
----------------------|-------------------------|-----------------------|
----------5-----------|-----0--0----------------|----------5---------0--|
--3-------------------|-----------0--0----0--2--|--3--------------------|


  E  E  E  E  E  E  E  E     Q    E  Q.     Q       E  E  E  E  Q    E  E   
--------------------------|----------------------|-------------------------|
--------------------------|----------------------|-------------------------|
--L--0--0--0--0--0--------|----------5-----------|-----0--0----------------|
--------------------0--2--|--3-------------------|-----------0--0----0--2--|


  Q    E  Q.     E  E     E  E  E  E  E  E  E  E     W                 
-----------------------|--------------------------|-------------------|
-----------------------|--------------------------|-------------------|
----------5---------0--|--L--0--0--0--0--0--0--0--|-------------------|
--3--------------------|--------------------------|--3----------------|


  W                   E  E  E  E  E  E  E  E     E  E  E  E  E  Q     E   
-------------------|--------------------------|--------------------------|
-------------------|--------------------------|--------------------------|
-------------------|--0--0--0--0--0--0--0--0--|--0--0--0--0--0-----------|
--2----------------|--------------------------|-----------------5\-------|


  E  E  E  E  Q    E  E     E  E  E  Q    S S E  E     E  E  E  E  Q    E  E   
-------------------------|--------------------------|-------------------------|
-------------------------|--------------------------|-------------------------|
--2-----2-----0-------2--|--L-----------------5--4--|--2-----2-----5-------0--|
-------------------------|-----0--2--3----5-7-------|-------------------------|


  Q    E  Q    S S E  E     E  E  E  E  Q    E  E     E  E  E  Q    S S E  E   
-------------------------|-------------------------|--------------------------|
-------------------------|-------------------------|--------------------------|
--L----------------5--4--|--2-----2-----0-------2--|--L-----------------5--4--|
-------0--3----5-7-------|-------------------------|-----0--2--3----5-7-------|


  E  E  E  E  E  E  E  E     E  E  E  E  E  E  E  E     W                 
--------------------------|--------------------------|-------------------|
--------------------------|--------------------------|-------------------|
--2-----2-----5--5-----0--|--L--0--0--0--0--0--0--0--|-------------------|
--------------------------|--------------------------|--3----------------|


  E  E  E  E  Q    E  E     E  E  E  Q    S S E  E     E  E  E  E  E  Q    E   
-------------------------|--------------------------|-------------------------|
-------------------------|--------------------5--4--|--------------5----------|
--7-----7-----5-------7--|--L--0--3--3----5-7-------|--7-----7-------------5--|
-------------------------|--------------------------|-------------------------|


  Q    E  Q    S S E  E     E  E  E  E  E  E  E  E     E  E  E  Q    S S E  E   
-------------------------|--------------------------|--------------------------|
-------------------5--4--|--------------------------|--------------------5--4--|
--L-------3----5-7-------|--7-----7-----5-----5--7--|--L--0--2--3----5-7-------|
-------------------------|--------------------------|--------------------------|


  E  E  E  E  E  Q    E     Q    E  H        S S    E  E  E  E  E  E  E  E   
-------------------------|-----------------------|--------------------------|
--------------5----------|-----------------------|--------------------------|
--7-----7-------------5--|--L----0--3--------2-0-|--2-----2-----2-----2--0--|
-------------------------|-----------------------|--------------------------|


  W                   E  E  E  E  E  E  Q       H        H         
-------------------|-------------------------|--------------------|
-------------------|-------------------------|--------------------|
--L----------------|--2-----2-----2-----2----|--5--------0--------|
-------------------|-------------------------|--------------------|


  W                   W                   E  E  E  E  E  E  E  E   
-------------------|-------------------|--------------------------|
-------------------|-------------------|--------------------------|
-------------------|-------------------|--0--0--0--0--0--0--0--0--|
--3----------------|--2----------------|--------------------------|


  E  E  E  E  E  Q     E     E  E  E  E  E  E  E  E   
--------------------------|--------------------------|
--------------------------|--------------------------|
--0--0--0--0--0-----------|--2-----2-----0--0-----2--|
-----------------5\-------|--------------------------|


  E  E  E  Q    S S E  E     E  E  E  E  Q    E  E     Q    E  Q    S S E  E   
--------------------------|-------------------------|-------------------------|
--------------------------|-------------------------|-------------------------|
--L-----------------5--4--|--2-----2-----5-------0--|--L----------------5--4--|
-----0--2--3----5-7-------|-------------------------|-------0--3----5-7-------|


  E  E  E  E  E  E  E  E     Q    E  Q    S S E  E     E  E  E  E  E  E  E  E   
--------------------------|-------------------------|--------------------------|
--------------------------|-------------------------|--------------------------|
--2-----2-----0--0-----2--|--L----------------5--4--|--2-----2-----5--5-----0--|
--------------------------|----------3----5-7-------|--------------------------|


  E  E  E  E  E  S S E  E     E  E  E  E  E  E  E  E   
---------------------------|--------------------------|
---------------------------|--------------------------|
--0--0--0------------5--4--|--2-----2-----0--0-----2--|
-----------2--3--5-7-------|--------------------------|


  E  E  E  Q    S S E  E     E  E  E  E  Q    E  E     Q    E  Q    S S E  E   
--------------------------|-------------------------|-------------------------|
--------------------------|-------------------------|-------------------------|
--L-----------------5--4--|--2-----2-----5-------0--|--L----------------5--4--|
-----0--2--3----5-7-------|-------------------------|-------0--3----5-7-------|


  E  E  E  E  Q    E  E     E  E  E  Q    S S E  E     E  E  E  E  E  E  E  E   
-------------------------|--------------------------|--------------------------|
-------------------------|--------------------------|--------------------------|
--2-----2-----0-------2--|--L-----------------5--4--|--2-----2-----5--5--------|
-------------------------|-----0--2--3----5-7-------|-----------------------2--|


  E  E  E  E  E  E  E  E     E  E  E  E  E  E  E  E   
--------------------------|--------------------------|
--------------------------|--------------------------|
--------------------------|--------------------------|
--L--2--3--2--3--5-----2--|--L--2--3--2--3--5-----2--|


  E  E  E  E  E  E  E  E     W                   H.           Q      
--------------------------|-------------------|--------------------||
--------------------------|-------------------|--------------------||
--------------5--4--2--0--|--2----------------|--L-----------------||
--L--2--3--2--------------|-------------------|--------------------||




Duration Legend
---------------
W - whole
H - half
Q - quarter
E - 8th
S - 16th
T - 32nd
X - 64th
. - note dotted
|-n-|  - n-tuplets


Tablature Legend
----------------
L - tied note
x - dead note
g - grace note
(n) - ghost note
> - accentuded note
NH - natural harmonic
AH - artificial harmonic
TH - tapped harmonic
SH - semi harmonic
PH - pitch harmonic
h - hammer on
p - pull off
b - bend
br - bendRelease
pb - preBend
pbr - preBendRelease
brb - bendReleaseBend
\n/ - tremolo bar dip
\n - tremolo bar dive
-/n - tremolo bar Release up
/n\ - tremolo bar inverted dip
/n - tremolo bar return
-\n - tremolo bar Release down
S - shift slide
s - legato slide
/ -  slide into from below or out of upwards
\ -  slide into from above or out of downwards
~ - vibrato
W - wide vibrato
tr - trill
TP - tremolo picking
T - tapping
S - slap
P - pop
< - fade in
^ - brush up
v - brush down
comments
We did not receive enough feedback on this tab! Please rate:
print report bad tab
1 2 3 4 5
I want to post or [tab]
guest
You may want to rate the tab now too:
select rating
Please do not post tabs as comments. Select "correction" instead!