Oops, an error
Loading. Please wait.

Midnight Mover bass

version 1
version 1

Whole song

Interactive

by Accept
1,883 views 3 this week
no commentswrite comment
1 2 3 4 5
2 more votes to show rating
add to favorites
×
Save as Personal and add changes to this tab that will be seen only by you. Learn more ›
×
You can save this tab as Personal to edit and correct it or add notes. All changes will be seen only by you. Learn more »
launch autoscroll
font size
0
reset
guitar tuner
backing track
0:00
0:00
edit
Autoscroll
slow
fast
+/-
esc
set tempo
stop
                                Midnight Mover                                  

Transcribed by an unregistered user

                                                                          Accept
Bass



     W                   H        E  E  E  E     H        E  E  E  E   
G||-------------------|-----------------------|-----------------------|
D||-------------------|-----------------------|-----------------------|
A||-------------------|--------------------4--|--L-----------9-----4--|
E||-------------------|-----------4--2--0-----|-----------------------|
B||-------------------|-----------------------|-----------------------|


  H        Q.     E     Q    E  Q.     E  E     Q    Q    E  E  E  E   
---------------------|-----------------------|------------------------|
---------------------|-----------------------|------------------------|
------------------7--|--L-------2---------4--|--L------------------4--|
---------------------|-----------------------|------------4--2--0-----|
---------------------|-----------------------|------------------------|


  H        E  E  E  E     Q.     E  Q.     E     Q    E  Q.     E  E   
-----------------------|----------------------|-----------------------|
-----------------------|----------------------|-----------------------|
--L-----------9-----4--|---------4---------7--|--L-------2---------0--|
-----------------------|----------------------|-----------------------|
-----------------------|----------------------|-----------------------|


  Q    Q    E  E  E  E     E  E  E  E  E  E  E  E     E  E  E  E  E  E  E  E   
------------------------|--------------------------|--------------------------|
------------------------|--------------------------|--------------------------|
--L---------------------|--------------------------|--------------------------|
------------4--2--0-----|--------------------------|--------------------------|
---------------------2--|--L--2--2--2--2--2--2--2--|--2--2--2--2--2--2--2--2--|


  E  E  E  E  E  E  E  E     E  E  E  E  E  E  E  E   
--------------------------|--------------------------|
--------------------------|--------------------------|
--------------------------|-----------------------4--|
--------------------------|--------------4--2--0-----|
--2--2--2--2--2--2--2--2--|--2--2--2--2--------------|


  E  E  E  E  E  E  E  E     E  E  E  E  E  E  E  E     Q    E  Q.     E  E   
--------------------------|--------------------------|-----------------------|
--------------------------|--------------------------|-----------------------|
--L--2--4--------------4--|--------4--------------7--|--L-------2---------0--|
--------------------------|--------------------------|-----------------------|
-----------2--2--2--2-----|--2--2-----2--2--2--2-----|-----------------------|


  W                   H.           E  E     E  E  E  E  E  Q.      
-------------------|---------------------|------------------------|
-------------------|---------------------|-----------1--2---------|
--L----------------|--L------------L--4--|--L--2--4---------------|
-------------------|---------------------|------------------------|
-------------------|---------------------|------------------------|


  Q    E  Q.     E  E     E  E  E  E  E  Q    E     Q    E  Q.     E  E   
-----------------------|-------------------------|-----------------------|
-----------------------|-----------1--2----------|-----------------------|
-------2--2---------4--|--L--2--4-------------2--|--L-----------------4--|
-----------------------|-------------------------|----------2------------|
-----------------------|-------------------------|-----------------------|


  E  E  E  E  E  Q.        Q    E  Q.     E  E     E  E  E  E  E  Q    E   
------------------------|-----------------------|-------------------------|
-----------1--2---------|-----------------------|-----------1--2----------|
--L--2--4---------------|-------2--2---------4--|--L--2--4-------------2--|
------------------------|-----------------------|-------------------------|
------------------------|-----------------------|-------------------------|


  Q    E  Q.     E  E     E  E  E  E  E  Q.        Q    E  Q.     E  E   
-----------------------|------------------------|-----------------------|
-----------------------|-----------1--2---------|-----------------------|
--L-----------------4--|--L--2--4---------------|-------2--2---------4--|
----------2------------|------------------------|-----------------------|
-----------------------|------------------------|-----------------------|


  E  E  E  E  E  Q    E     Q    E  Q.     E  E     E  E  E  E  E  Q.      
-------------------------|-----------------------|------------------------|
-----------1--2----------|-----------------------|-----------1--2---------|
--L--2--4-------------2--|--L-----------------4--|--L--2--4---------------|
-------------------------|----------2------------|------------------------|
-------------------------|-----------------------|------------------------|


  Q    E  Q.     E  E     E  E  E  E  E  Q    E     Q    E  Q.     E  E   
-----------------------|-------------------------|-----------------------|
-----------------------|-----------1--2----------|-----------------------|
-------2--2---------4--|--L--2--4-------------2--|--L--------------0--0--|
-----------------------|-------------------------|----------2------------|
-----------------------|-------------------------|-----------------------|


  E  E  E  E  E  E  E  E     E  E  E  E  E  E  E  E    
--------------------------|---------------------------|
--------------------------|---------------------------|
--L--0--0--0--0--0--0--0--|--0--0--0--0--0--0--0--7S--|
--------------------------|---------------------------|
--------------------------|---------------------------|


  E  E  E  E  E  E  E  E     E  E  E  E  E  E  E  E     E  E  E  E  Q    E  E   
--------------------------|--------------------------|-------------------------|
--------------------------|--------------------------|-------------------------|
--L-----------------------|--------------------------|-------------------------|
-----2--2--2--5-----5--7--|--L--7--7--7--5-----7-----|--7--9-----9--9-------4--|
--------------------------|--------------------------|-------------------------|


  E  E  E  E  E  E  E  E     E  E  E  E  E  Q    E     E  E  E  E  E  E  E  E   
--------------------------|-------------------------|--------------------------|
--------------------------|-------------------------|--------------------------|
--------------------------|-----------2--2-------2--|--L--2--2--2--0-----2-----|
--L--4--4--5--5--7--4--0--|-----0--0----------------|--------------------------|
--------------------------|-------------------------|--------------------------|


  E  E  E  E  Q    E  E     W                   H.           E  E   
-------------------------|-------------------|---------------------|
-------------------------|-------------------|---------------------|
--2--4-----4--4-------0--|--L----------------|--7------------L--2--|
-------------------------|-------------------|---------------------|
-------------------------|-------------------|---------------------|


  H.           E  E     E  E  E  E  E  Q.        Q    E  Q.     E  E   
---------------------|------------------------|-----------------------|
---------------------|-----------1--2---------|-----------------------|
--L------------L--4--|--L--2--4---------------|-------2--2---------4--|
---------------------|------------------------|-----------------------|
---------------------|------------------------|-----------------------|


  E  E  E  E  E  Q    E     Q    E  Q.     E  E     E  E  E  E  E  Q.      
-------------------------|-----------------------|------------------------|
-----------1--2----------|-----------------------|-----------1--2---------|
--L--2--4-------------2--|--L-----------------4--|--L--2--4---------------|
-------------------------|----------2------------|------------------------|
-------------------------|-----------------------|------------------------|


  Q    E  Q.     E  E     E  E  E  E  E  Q    E     Q    E  Q.     E  E   
-----------------------|-------------------------|--------------------6--|
-----------------------|-----------1--2----------|-----------------------|
-------2--2---------4--|--L--2--4-------------2--|--L--------------------|
-----------------------|-------------------------|----------2------------|
-----------------------|-------------------------|-----------------------|


  E  E  E  E  E  Q    E     Q    E  Q.     E  E     E  E  E  E  E  Q     E    
----------------------4--|-----------------------|---------------------------|
-----------1--2----------|-----------------------|-----------1--2------------|
-----2--4----------------|-------2--2---------4--|--L--2--4------------------|
-------------------------|-----------------------|---------------------------|
-------------------------|-----------------------|----------------------(0)--|


  E  E  E  Q    E  E  E     E  E  E  E  E  Q.        Q    E  Q.     E  E   
-------------------------|------------------------|-----------------------|
-------------------------|-----------1--2---------|-----------------------|
-------------------0--4--|--L--2--4---------------|-------2--2---------4--|
-----------2----2--------|------------------------|-----------------------|
-----0--4----------------|------------------------|-----------------------|


  E  E  E  E  E  Q    E     Q    E  Q.     E  E     E  E  E  E  E  E  E  E   
-------------------------|-----------------------|--------------------------|
-----------1--2----------|-----------------------|--------------------------|
--L--2--4-------------2--|--L--------------0--0--|--L--0--0--0--0--0--0--0--|
-------------------------|----------2------------|--------------------------|
-------------------------|-----------------------|--------------------------|


  E  E  E  E  E  E  E  E      E  E  E  E  E  E  E  E   
---------------------------|--------------------------|
---------------------------|--------------------------|
--0--0--0--0--0--0--0--7S--|--L-----------------------|
---------------------------|-----2--2--2--5-----5--7--|
---------------------------|--------------------------|


  E  E  E  E  E  E  E  E     E  E  E  E  Q    E  E     E  E  E  E  E  E  E  E   
--------------------------|-------------------------|--------------------------|
--------------------------|-------------------------|--------------------------|
--------------------------|-------------------------|--------------------------|
--L--7--7--7--5-----7-----|--7--9-----9--9-------4--|--L--4--4--5--5--7--4--0--|
--------------------------|-------------------------|--------------------------|


  E  E  E  E  E  Q    E     E  E  E  E  E  E  E  E     E  E  E  E  Q    E  E   
-------------------------|--------------------------|-------------------------|
-------------------------|--------------------------|-------------------------|
-----------2--2-------2--|--L--2--2--2--0-----2-----|--2--4-----4--4-------0--|
-----0--0----------------|--------------------------|-------------------------|
-------------------------|--------------------------|-------------------------|


  H.           E  E     H         H            H        E  E  E  E    
---------------------|----------------------|------------------------|
---------------------|----------------------|------------------------|
--L------------L--0--|--L--------12\--------|------------------------|
---------------------|----------------------|--2--------L--2-----2S--|
---------------------|----------------------|------------------------|


  Q     E  H        E     E  E  E  E  E  E  E  E     E  E  E  E  E  E  E  E   
-----------------------|--------------------------|--------------------------|
-----------------------|--------------------------|--------------------------|
-----------------------|--------------------------|--------------------------|
--L----14--------------|--------------------------|--------------------------|
--------------------2--|--2--2--2--2--2--2--2--2--|--2--2--2--2--2--2--2--2--|


  E  E  E  E  E  E  E  E     E  E  E  E  E  E  E  E   
--------------------------|--------------------------|
--------------------------|--------------------------|
--------------------------|--------------------------|
--------------------------|--------------------------|
--2--2--2--2--2--2--2--2--|--2--2--2--2--2--2--2--2--|


  E  E  E  E  E  E  E  E     E  E  E  E  E  E  E  E   
--------------------------|--------------------------|
--------------------------|--------------------------|
--------------------------|--------------------------|
--------------------------|--------------------------|
--2--2--2--2--2--2--2--2--|--2--2--2--2--2--2--2--2--|


  E  E  E  E  E  E  E  E     E  E  E  E  E  E  E  E   
--------------------------|--------------------------|
--------------------------|--------------------------|
--------------------------|--------------------------|
--------------------------|--------------------------|
--2--2--2--2--2--2--2--2--|--2--2--2--2--2--2--2--2--|


  E  E  E  E  E  E  E  E     E  E  E  E  E  E  E  E   
--------------------------|--------------------------|
--------------------------|--------------------------|
--------------------------|--------------------------|
--------------------------|--------------------------|
--L--2--2--2--2--2--2--2--|--2--2--2--2--2--2--2--2--|


  E  E  E  E  E  E  E  E     E  E  E  E  E  E  E  E   
--------------------------|--------------------------|
--------------------------|--------------------------|
--------------------------|-----------------------4--|
--------------------------|--------------------------|
--2--2--2--2--2--2--2--2--|--2--2--2--2--2--2--2-----|


  E  E  E  E  E  E  E  E     E  E  E  E  E  E  E  E     Q.     H        E   
--------------------------|--------------------------|---------------------|
--------------------------|--------------------------|---------------------|
-----------------4-----4--|-----------------------7--|--L------2--------0--|
--------------------------|--------------------7-----|---------------------|
--2--2--2--2--2-----2--2--|--2--2--2--2--2--2--------|---------------------|


  E  H        E  E  E      E  Q    Q     Q    E      E  H        E  E  E    
------------------------|-------------------------|------------------------|
------------------------|-------------------------|------------------------|
--L---------------------|-------------------------|------------------------|
--------------5-----5\--|--L-------5\---------5\--|--L-----------5-----5\--|
------------------------|-------------------------|------------------------|


  E  E  E  E  E  E  E  E     E  E  E  E  E  E  E  E     E  E  E  E  Q    E  E   
--------------------------|--------------------------|-------------------------|
--------------------------|--------------------------|-------------------------|
--------------------------|--------------------------|-------------------------|
--L--5--2--2--5-----5--7--|--L--7--7--7--5-----7-----|--7--9-----9--9-------4--|
--------------------------|--------------------------|-------------------------|


  E  E  E  E  E  E  E  E     E  E  E  E  E  Q    E     E  E  E  E  E  E  E  E   
--------------------------|-------------------------|--------------------------|
--------------------------|-------------------------|--------------------------|
--------------------------|-----------2--2-------2--|--L--2--2--2--0-----2-----|
--L--4--4--5--5--7--4--0--|-----0--0----------------|--------------------------|
--------------------------|-------------------------|--------------------------|


  E  E  E  E  Q    E  E     W                   Q    E  Q.     E  E   
-------------------------|-------------------|-----------------------|
-------------------------|-------------------|-----------------------|
--2--4-----4--4-------0--|--L----------------|--7----L--2---------2--|
-------------------------|-------------------|-----------------------|
-------------------------|-------------------|-----------------------|


  E  E  E  E  E  E  E  E     E  E  E  E  Q    E  E     E  E  E  E  E  E  E  E   
--------------------------|-------------------------|--------------------------|
--------------------------|-------------------------|--------------------------|
-----2--2--2--------------|-------------------------|--------------------------|
--------------5-----7-----|--7--9-----9--9-------4--|--L--4--4--5--5--7--4--0--|
--------------------------|-------------------------|--------------------------|


  E  E  E  E  E  Q    E     E  E  E  E  E  E  E  E     E  E  E  E  Q    E  E   
-------------------------|--------------------------|-------------------------|
-------------------------|--------------------------|-------------------------|
-----------2--2-------2--|--L--2--2--2--0-----2-----|--2--4-----4--4-------0--|
-----0--0----------------|--------------------------|-------------------------|
-------------------------|--------------------------|-------------------------|


  W                   W                   W                 
-------------------|-------------------|-------------------|
-------------------|-------------------|-------------------|
--L----------------|--7----------------|--2----------------|
-------------------|-------------------|-------------------|
-------------------|-------------------|-------------------|


  H        E  E  E  E    
-----------------------||
-----------------------||
--L--------------------||
-----------4--2--0-----||
--------------------2--||




Duration Legend
---------------
W - whole
H - half
Q - quarter
E - 8th
S - 16th
T - 32nd
X - 64th
. - note dotted
|-n-|  - n-tuplets


Tablature Legend
----------------
L - tied note
x - dead note
g - grace note
(n) - ghost note
> - accentuded note
NH - natural harmonic
AH - artificial harmonic
TH - tapped harmonic
SH - semi harmonic
PH - pitch harmonic
h - hammer on
p - pull off
b - bend
br - bendRelease
pb - preBend
pbr - preBendRelease
brb - bendReleaseBend
\n/ - tremolo bar dip
\n - tremolo bar dive
-/n - tremolo bar Release up
/n\ - tremolo bar inverted dip
/n - tremolo bar return
-\n - tremolo bar Release down
S - shift slide
s - legato slide
/ -  slide into from below or out of upwards
\ -  slide into from above or out of downwards
~ - vibrato
W - wide vibrato
tr - trill
TP - tremolo picking
T - tapping
S - slap
P - pop
< - fade in
^ - brush up
v - brush down

            
            
Suggest correction
Creating personal tab
Creating personal tab
You can edit any tab online and save it as your Personal.

You can edit, replace or remove any tab part or add personal notes – all changes will be seen only by you.

Personal tabs can be accessed anytime from any device, even offline.
Learn more »
Give kudos to tab author, rate the tab!
1 2 3 4 5
comments
print report bad tab
guest
You may want to rate the tab now too:
select rating
Wanna post a correction for this tab? Suggest correction