Oops, an error
Loading. Please wait.

Princess Of The Dawn tab

version 2
version 2

Whole song

Interactive

by Accept
13,011 views 30 this week
no commentswrite comment
1 2 3 4 5
x 5
add to favorites
×
Save as Personal and add changes to this tab that will be seen only by you. Learn more ›
×
You can save this tab as Personal to edit and correct it or add notes. All changes will be seen only by you. Learn more »
launch autoscroll
font size
0
reset
how to read this tab
guitar tuner
edit
Autoscroll
slow
fast
+/-
esc
set tempo
stop
Author
Band:  Accept
Album: Restless And Wild
Song:  Princess Of The Dawn

Copyright (c)  (Heavy Metal) (1983)
Version 1.0 - (02/05/05)




.  - palm mute           /  - slide up to
\  - slide down to       ~  - vibrato
h  - hammer on           b  - Bend
p  - pull off            Suffixes for bend
t  - tap                 f  - full bend    h - half bend
ph - pinched harmonic    q  - quarter bend t - tap bend
*  - see comment         ^  - Hold bend    r release bend
x  - Stuccatto           ~  - vibrato bend
,  - slight palm mute    () - ghost note, sustained note
"  - tremolo note        <> - Trill

Tunning E A D G B E
 
 Intro

 Guitar on own

   [PM]   [--PM--] [PM]   [--PM--]  [PM]  [--PM--]
E----------------------------------------------------------|
B-3-----3-------------------------3-----3------------------|
G-2-----3---------5-----7---------2-----3---------5-5/7-7--|
D-0-0-0-0-0-0-0-0-5-0-0-7-0-0-0-0-0-0-0-0-0-0-0-0-5-5/7-7--|
A-------------------------------------------------3-3/5-5--|
E----------------------------------------------------------|

 Main Riff(both guitars)

   [PM]   [--PM--] [PM]   [--PM--]  [PM]  [--PM--]   PM     [--PM--]
E-------------------------------------------------------------------|
B-3-----3---------1-----3---------3-----3---------1-1---3-3---------|
G-2-----3---------0-----2---------2-----3---------0-0---2-2---------|
D-0-0-0-0-0-0-0-0---0-0---0-0-0-0-0-0-0-0-0-0-0-0-----0-----0-0-0-0-|
A-------------------------------------------------------------------|
E-------------------------------------------------------------------|
                                                               Rpt 
 Rpt Main Riff 4 X for Verse 


 Chorus

  Guitar 1
   [PM]  [--PM--]   [PM]  [--PM--]  [PM]  [--PM--]
E[----------------------------------------------------|
B[----------------------------------------------------|
G[-9-----2---------7-----9---------9-----2---------7\-|
D[-7-----3---------5-----7---------7-----3---------5\-|
A[---0-0---0-0-0-0---0-0---0-0-0-0---0-0---0-0-0-0----|
E[----------------------------------------------------|
 [
 [Guitar 2 acoustic
E[----------------------------------------------------|
B[-10-------10-----8-----10--------10-------10-----8--|
G[-9-----10----9---7-----9--9------9-----10----9---7--|
D[-7-----7---------5-----7---------7-----7---------5--|
A[----------------------------------------------------|
E[----------------------------------------------------|

 Rpt Main Riff once with D chord crash below
                                                       Pick scrape                      
E-------------------------------------------------------------------|
B-------------------------------------------------------------------|
G-------------------------------------------------------------------|
D-7-----------------------(7)-------------------------------\-------|
A-5-----------------------(5)--------------------------------\------|
E-------------------------------------------------------------------|

 Rpt Verse with this additional guitar appearing halfway through.

                                                           Slide
E-------------------------------------------------------------------|
B-------------------------------------------------------------------|
G-------------------------------------------------------------------|
D-5-/7--------------------(7)--------------------------------\------|
A-3-/5--------------------(5)--------------------------------\------|
E-------------------------------------------------------------------|

 Rpt Chorus

 Additional guitar over main riff

           ~~~~~~~~~~~~~~  To feedback~~~~~~~~~~~~~~~~~ Pick scrape                      
E-------------------------------------------------------------------|
B-------------------------------------------------------------------|
G-------------------------------------------------------------------|
D-7-----------------------(7)-------------------------------\-------|
A-5-----------------------(5)--------------------------------\------|
E-------------------------------------------------------------------|
                                           ~~~~~~~~~To Feedback
E---------------------------------------------------------------|
B-----3----------(3)--------------------------------------------|
G-x-x-2----------(2)--------x-x-5--------(5)--------------------|
D-x-x-0----------(0)--------x-x-3--------(3)--------------------|
A---------------------------------------------------------------|
E---------------------------------------------------------------|

  Guitar 1
   ~~~~~~~~~~~~~~~~~~~~~~~~~~~~~~~~~~~~~~~~~~~~~~~~~~~~~
E[------------------------------------------------------------------|
B[------------------------------------------------------------------|
G[-/13---------------------------------------------------\----------|
D[------------------------------------------------------------------|
A[------------------------------------------------------------------|
E[------------------------------------------------------------------|
 [Guitar 2
 [  ~~~~~~~~~~~~~~~~~~~~~~~~~~~~~~~~~~~~~~~~~~~~~~~~~~~~~
E[------------------------------------------------------------------|
B[-/13---------------------------------------------------\----------|
G[------------------------------------------------------------------|
D[------------------------------------------------------------------|
A[------------------------------------------------------------------|
E[------------------------------------------------------------------|
                                                     Trem Dive
E-------------------------------------------------------------------|
B-------------------------------------------------------------------|
G-------------------------------------------------------------------|
D-0-----3-----/5-----/7------7-----/8-----/10-----/12--\------------|
A-------------------------------------------------------------------|
E-------------------------------------------------------------------|

 Rpt Verse
 Rpt Chorus

 Backing for guitar solo
                                                                            
E-------------------------------------------------------------------|
B-------------------------------------------------------------------|
G-------------------------------------------------------------------|
D-7-----------------------(7)---------------------------------------|
A-5-----------------------(5)---------------------------------------|
E-------------------------------------------------------------------|

 Tap and drag pick down frets
  t      t      t     t     t     t      t      t      t
E-------------------------------------------------------------------|
B-------------------------------------------------------------------|
G-------------------------------------------------------------------|
D-\-------\------\-----\-----\-----\-----\------\-------\-----------|
A--\-------\------\-----\-----\-----\-----\------\-------\-ETC-/12\-|
E--------------------------------------------------------------/12\-|

 Guitar with octave pedal set one octave below
E--------------------------------|
B--------------------------------|
G--------------------------------|
D--------------------------------|
A-5--7-/8-/10--8-\7-\3--5-/7--5--|
E--------------------------------|

E----------------------------------|
B----------------------------------|
G----------------------------------|
D----------------------------------|
A-5--7-/8-/10--8-\7--8--10-/13--12-|
E----------------------------------|

  Guitar 1
E[---------------------------------|
B[---------------------------------|
G[---------------------------------|
D[---------------------------------|
A[-5--7-/8-/10--8-\7-\3---5-/7--5--|
E[---------------------------------|
 [
 [Guitar 2
E[---------------------------------|
B[---------------------------------|
G[-7--9-/10/12--10-\9-\5--7pb9r-7--|
D[---------------------------------|
A[---------------------------------|
E[---------------------------------|

  Guitar 1
E[---------------------------------|
B[---------------------------------|
G[---------------------------------|
D[---------------------------------|
A[-5--7-/8-\3--0--1--0--------0----|
E[----------------------1-/3-------|
 [
 [Guitar 2
E[---------------------------------|
B[---------------------------------|
G[-7--9-/10\5-\2--3--2--------2----|
D[----------------------3-/5-------|
A[---------------------------------|
E[---------------------------------|

 Along with main riff Rpt this riff 4 X for guitar solo backing

E--------------------------------|
B--------------------------------|
G--------------------------------|
D--------------------------------|
A-5--7-/8-/10--8-\7-\3--5-/7--5--|
E--------------------------------|

 Guitar solo

   ~~~~~~~                 ~~~        ~~~~       ph
E-------------------------------------------------------------------|
B-13fb----r13p10\------------------------------8-10-8------13fb13fb-|
G----------------10-9-10-7----10-9-10-7---9-10--------10-7----------|
D--------------------------7----------------------------------------|
A-------------------------------------------------------------------|
E-------------------------------------------------------------------|
         h        phh     ~~~         h     ~~~~
E------------------------------------------------|
B-8br8p6---8br8-6-5-6p5--------------------------|
G--------7--------------5------------------------|
D-------------------------7---7-5-3-2-3p2--------|
A-----------------------------------------3/5----|
E------------------------------------------------|

                                          [--------PM--------]
E-13----------------------------------------------------------|
B----15-------------------------------------------------------|
G-------14----------------------------------------------------|
D----------12\10---------------------------------------7-8-10-|
A----------------12-10-8/10/12-10-5/7\5/7----7-8-10-10--------|
E-----------------------------------------10------------------|
            ~~~            h                      ~~~~
E------------------------------------------------------|
B--------8-10---11p10p8-11-13p11\10\8-11p10-8----8br---|
G-7-9-10--------------------------------------10-------|
D------------------------------------------------------|
A------------------------------------------------------|
E------------------------------------------------------|
 [--------PM--------]  h  h     ~~
E----------------------------------10-------10--8------10----8------|
B--------------------8-10-11p10p8-----10------10-10-10----10---10---|
G-------------7-9-10---------------------10-----------------------10|
D------7-8-10-------------------------------------------------------|
A-8-10--------------------------------------------------------------|
E-------------------------------------------------------------------|

E-10-12-13/15/17-15-13-0-12-13-15/17/20b--|
B-----------------------------------------|
G-----------------------------------------|
D-----------------------------------------|
A-----------------------------------------|
E-----------------------------------------|
  ph ph ph ph         ph ph        ph ph ph ph       h   h   h
E-------------------------------------------------------------------|
B-11p10---------------11p10--------11p10----------------------------|
G-------10\9\7----7-9-------10\9\7-------10\9\7----5-7p5-7p5-7p-----|
D--------------10-------------------------------10------------------|
A-------------------------------------------------------------------|
E-------------------------------------------------------------------|

  harmonic finger slide 

 Riff A

      ~~     ~~     ~~      [--PM--] 
E------------------------------------|
B-----6-\----8-\----6-\--------------|
G-----5-\----7-\----5-\--------------|
D-5/7----5/7----5/7----5/7--7-7-7-7--|
A-3/5----3/5----3/5----3/5--5-5-5-5--|
E------------------------------------| Rpt 4 X

 Additional lead guitar fills played each time at end of Riff A

E----------------------|
B-13--13-13--13-13--13-|
G-12br---12br---12br---|
D----------------------|
A----------------------|
E----------------------|

  ph~~~~~~~~~~~~ ~~~~
E----------------------|
B----------------------|
G-12fb-------r---------|
D--------------12----\-|
A----------------------|
E----------------------|

  ph~~~~~~~
E---------------------------------------|
B---------------------------------------|
G-12fb----rp10--------------------------|
D--------------10-12p10-12p10-12p10-----|
A-----------------------------------x\--|
E-----------------------------------x\--|

E-20fb-----------------|
B----------------------|
G----------------------|
D----------------------|
A-------------x\-------|
E-------------x\-------|

 Rpt Firts Octave guitar riff 2 X

 End of 1st time

E--------------|
B-10-12-13-13b-|
G--------------|
D--------------|
A--------------|
E--------------|

 Enters 2nd time
                              ~~ 
E-10-12-13-13br13-12\8--9--9br9-\-|
B---------------------------------|
G---------------------------------|
D---------------------------------|
A---------------------------------|
E---------------------------------|

 Guitar 1
E-------------------------------|
B-------------------------------|
G-------------------------------|
D----2--3--5--7--9--10-12--x\---|
A-5--0--1--3--5--7--8--10--x\---|
E-3-----------------------------|
 Guitar 2
     ~~~~~~~~~~~~~~~~~~~~~~
E-------------------------------|
B--------------------------13\--|
G-0--2--3--5--7--9--10-12-------|
D-------------------------------|
A-------------------------------|
E-------------------------------|

 Rpt Main Riff once with these additional guitars.
  Guitar 1
E-------------------------------------------------------------------|
B-------------------------------------------------------------------|
G-------------------------------------------------------------------|
D-7-----------------------(7)---------------------------------------|
A-5-----------------------(5)---------------------------------------|
E-------------------------------------------------------------------|
 Guitar 2
     ~~~~~~~~~~~~~~~~~~~~~~~~~~~~~~~~~~~~~~~~~~~~~~~~~
E-------------------------------------------------------------------|
B-13b---------------------------------------------------------------|
G-------------------------------------------------------------------|
D-------------------------------------------------------------------|
A-------------------------------------------------------------------|
E-------------------------------------------------------------------|

 Rpt Chorus
 Rpt MAin Riff once with D chord crash.
 
 Folky lead guitar part

 Guitar 1 Cleanish                                     h
E-------------------------------------8-----------------------------|
B-------5-6---5-6-8-5-6-8/10--10/11-8---11-10-11p10\8\6\5-6---5-----|
G-7-6-7-----7-----------------------------------------------7---6-7-|
D-------------------------------------------------------------------|
A-------------------------------------------------------------------|
E-------------------------------------------------------------------|
 Guitar 2
E-------------------------------------------------------------------|
B-------------------------------------------------------------------|
G-------------------------------------------------------------------|
D-0-----------------------3------5---------0------------------------|
A---------------------------------------------------------1---0--/5-|
E-------------------------------------------------------------------|

 Rpt Main riff with folky lead till end 




END
Suggest correction
Creating personal tab
Creating personal tab
You can edit any tab online and save it as your Personal.

You can edit, replace or remove any tab part or add personal notes – all changes will be seen only by you.

Personal tabs can be accessed anytime from any device, even offline.
Learn more »
comments
print report bad tab
guest
You may want to rate the tab now too:
select rating
Wanna post a correction for this tab? Suggest correction