Oops, an error
Loading. Please wait.

Restless And Wild bass

version 1
version 1

Whole song

Interactive

by Accept
907 views 3 this week
no commentswrite comment
1 2 3 4 5
3 more votes to show rating
add to favorites
×
Save as Personal and add changes to this tab that will be seen only by you. Learn more ›
×
You can save this tab as Personal to edit and correct it or add notes. All changes will be seen only by you. Learn more »
launch autoscroll
font size
0
reset
guitar tuner
backing track
0:00
0:00
edit
Autoscroll
slow
fast
+/-
esc
set tempo
stop
                              Restless and wild                                 

Transcribed by an unregistered user

                                                                          Accept
Bass



     H           E  S S E  S S E  S S E  S S    E  S S E  S S E  S S E  S S  
G||-----------|------------------------------|------------------------------|
D||-----------|------------------------------|------------------------------|
A||-----------|------------------------------|------------------------------|
E||-----------|--0--0-0-0--0-0-0--0-0-0--0-0-|--0--0-0-0--0-0-0--0-0-0--0-0-|


  E  S S E  S S E  S S E  S S    E  S S E  S S E  S S E  S S  
------------------------------|------------------------------|
------------------------------|------------------------------|
------------------------------|------------------------------|
--0--0-0-0--0-0-0--0-0-0--0-0-|--0--0-0-0--0-0-0--0-0-0--0-0-|


  Q    E  S S E  S S E  E     E  E  E  H        E     Q    E  S S E  S S E  E   
---------------------------|-----------------------|---------------------------|
---------------------------|-----------------------|---------------------------|
--5----7----------------5--|-----------3--------L--|--5----7----------------5--|
----------0-0-0--0-0-0-----|--0--0--0--------------|----------0-0-0--0-0-0-----|


  E  E  E  H        E     Q    E  S S E  S S E  E     E  E  E  H        E   
-----------------------|---------------------------|-----------------------|
-----------------------|---------------------------|-----------------------|
-----------------------|--5----7----------------5--|-----------3--------L--|
--0--0--5--5--------L--|----------0-0-0--0-0-0-----|--0--0--0--------------|


  Q    E  S S E  S S E  E     E  E  E  H        E     E  E  E  E  E  E  E  E   
---------------------------|-----------------------|--------------------------|
---------------------------|-----------------------|--------------------------|
--5----7----------------5--|-----------------------|--------------------------|
----------0-0-0--0-0-0-----|--0--0--5--5--------L--|--0--0--0--0--0--0--0--0--|


  E  E  E  E  E  E  E  E     E  E  E  E  E  E  E  E   
--------------------------|--------------------------|
--------------------------|--------------------------|
--------------------------|--------------------------|
--0--0--0--0--0--0--0--0--|--0--0--0--0--0--0--0--0--|


  E  E  E  E  E  E  E  E     Q    E  S S E  S S E  E     E  E  E  H        E   
--------------------------|---------------------------|-----------------------|
--------------------------|---------------------------|-----------------------|
--------------------------|--5----7----------------5--|-----------3--------L--|
--0--0--0--0--0--0--0--0--|----------0-0-0--0-0-0-----|--0--0--0--------------|


  Q    E  S S E  S S E  E     E  E  E  H        E     E  E  E  E  E  E  E  E   
---------------------------|-----------------------|--------------------------|
---------------------------|-----------------------|--------------------------|
--5----7----------------5--|-----------------------|--------------------------|
----------0-0-0--0-0-0-----|--0--0--5--5--------L--|--0--0--0--0--0--0--0--0--|


  E  E  E  E  E  E  E  E     E  E  E  E  E  E  E  E   
--------------------------|--------------------------|
--------------------------|--------------------------|
--------------------------|--------------------------|
--0--0--0--0--0--0--0--0--|--0--0--0--0--0--0--0--0--|


  E  E  E  E  E  E  E  E     Q    E  S S E  S S E  E     E  E  E  H        E   
--------------------------|---------------------------|-----------------------|
--------------------------|---------------------------|-----------------------|
--------------------------|--5----7----------------5--|-----------3--------L--|
--0--0--0--0--0--0--0--0--|----------0-0-0--0-0-0-----|--0--0--0--------------|


  Q    E  S S E  S S E  E     E  E  E  H        E     E  E  E  E  E  E  E  E   
---------------------------|-----------------------|--------------------------|
---------------------------|-----------------------|--------------------------|
--5----7----------------5--|-----------------------|--3--3--3--3--3--3--3--3--|
----------0-0-0--0-0-0-----|--0--0--5--5--------L--|--------------------------|


  E  E  E  E  E  E  E  E     E  E  H        Q       E  E  H        Q     
--------------------------|----------------------|----------------------|
--------------------------|----------------------|----------------------|
--3--3--3--3--3--3--3--3--|--0-----2--------L----|--0-----2--------L----|
--------------------------|----------------------|----------------------|


  E  E  E  E  E  E  E  E     E  E  E  E  E  E  E  E   
--------------------------|--------------------------|
--------------------------|--------------------------|
--3--3--3--3--3--3--3--3--|--3--3--3--3--3--3--3--3--|
--------------------------|--------------------------|


  E  E  E  E  E  E  E  E     E  E  E  H        E     E  E  E  E  E  E  E  E   
--------------------------|-----------------------|--------------------------|
--------------------------|-----------------------|--------------------------|
--------------------------|--------3--3--------L--|--------------------------|
--0--0--0--0--0--0--0--0--|--0--0-----------------|--0--0--0--0--0--0--0--0--|


  E  E  E  H        E     E  E  E  E  E  E  E  E     E  E  E  H        E   
-----------------------|--------------------------|-----------------------|
-----------------------|--------------------------|-----------------------|
-----------------------|--------------------------|--------3--3--------L--|
--0--0--5--5--------L--|--0--0--0--0--0--0--0--0--|--0--0-----------------|


  E  E  E  E  E  E  E  E      E   E   E  E  E  E  E  E   
--------------------------|-----------------------------|
--------------------------|-----------------------------|
--------------------------|-----------------------------|
--0--0--0--0--0--0--0--0--|--12--11--10--9--8--7--6--5--|


  E  E  E  S S E  S S E  E     E  E  E  H        E   
----------------------------|-----------------------|
----------------------------|-----------------------|
-----------0-0-0--0-0-0-----|--0--0--0--------------|
--3--3--5----------------3--|-----------1--------L--|


  E  E  E  S S E  S S E  E     E  E  E  H        E   
----------------------------|-----------------------|
----------------------------|-----------------------|
-----------0-0-0--0-0-0-----|--0--0--5--5--------L--|
--3--3--5----------------3--|-----------------------|


  E  E  E  S S E  S S E  E     E  E  E  H        E   
----------------------------|-----------------------|
----------------------------|-----------------------|
-----------0-0-0--0-0-0-----|--0--0--0--------------|
--3--3--5----------------3--|-----------1--------L--|


  E  E  E  S S E  S S E  E     E  E  E  H        E     E  E  E  E  E  E  E  E   
----------------------------|-----------------------|--------------------------|
----------------------------|-----------------------|--------------------------|
-----------0-0-0--0-0-0-----|--0--0--5--5--------L--|--------------------------|
--3--3--5----------------3--|-----------------------|--0--0--0--0--0--0--0--0--|


  E  E  E  E  E  E  E  E     E  E  E  E  E  E  E  E   
--------------------------|--------------------------|
--------------------------|--------------------------|
--------------------------|--------------------------|
--0--0--0--0--0--0--0--0--|--0--0--0--0--0--0--0--0--|


  E  E  E  E  E  E  E  E     Q    E  S S E  S S E  E     E  E  E  H        E   
--------------------------|---------------------------|-----------------------|
--------------------------|---------------------------|-----------------------|
--------------------------|--5----7----------------5--|-----------3--------L--|
--0--0--0--0--0--0--0--0--|----------0-0-0--0-0-0-----|--0--0--0--------------|


  Q    E  S S E  S S E  E     E  E  E  H        E     E  E  E  E  E  E  E  E   
---------------------------|-----------------------|--------------------------|
---------------------------|-----------------------|--------------------------|
--5----7----------------5--|-----------------------|--------------------------|
----------0-0-0--0-0-0-----|--0--0--5--5--------L--|--0--0--0--0--0--0--0--0--|


  E  E  E  E  E  E  E  E     E  E  E  E  E  E  E  E   
--------------------------|--------------------------|
--------------------------|--------------------------|
--------------------------|--------------------------|
--0--0--0--0--0--0--0--0--|--0--0--0--0--0--0--0--0--|


  E  E  E  E  E  E  E  E     Q    E  S S E  S S E  E     E  E  E  H        E   
--------------------------|---------------------------|-----------------------|
--------------------------|---------------------------|-----------------------|
--------------------------|--5----7----------------5--|-----------3--------L--|
--0--0--0--0--0--0--0--0--|----------0-0-0--0-0-0-----|--0--0--0--------------|


  Q    E  S S E  S S E  E     E  E  E  H        E     E  E  E  E  E  E  E  E   
---------------------------|-----------------------|--------------------------|
---------------------------|-----------------------|--------------------------|
--5----7----------------5--|-----------------------|--3--3--3--3--3--3--3--3--|
----------0-0-0--0-0-0-----|--0--0--5--5--------L--|--------------------------|


  E  E  E  E  E  E  E  E     E  E  H        Q       E  E  H        Q     
--------------------------|----------------------|----------------------|
--------------------------|----------------------|----------------------|
--3--3--3--3--3--3--3--3--|--0-----2--------L----|--0-----2--------L----|
--------------------------|----------------------|----------------------|


  E  E  E  E  E  E  E  E     E  E  E  E  E  E  E  E   
--------------------------|--------------------------|
--------------------------|--------------------------|
--3--3--3--3--3--3--3--3--|--3--3--3--3--3--3--3--3--|
--------------------------|--------------------------|


  E  E  E  E  E  E  E  E     E  E  E  H        E     E  E  E  E  E  E  E  E   
--------------------------|-----------------------|--------------------------|
--------------------------|-----------------------|--------------------------|
--------------------------|--------3--3--------L--|--------------------------|
--0--0--0--0--0--0--0--0--|--0--0-----------------|--0--0--0--0--0--0--0--0--|


  E  E  E  H        E     E  E  E  E  E  E  E  E     E  E  E  H        E   
-----------------------|--------------------------|-----------------------|
-----------------------|--------------------------|-----------------------|
-----------------------|--------------------------|--------3--3--------L--|
--0--0--5--5--------L--|--0--0--0--0--0--0--0--0--|--0--0-----------------|


  E  E  E  E  E  E  E  E      E   E   E  E  E  E  E  E   
--------------------------|-----------------------------|
--------------------------|-----------------------------|
--------------------------|-----------------------------|
--0--0--0--0--0--0--0--0--|--12--11--10--9--8--7--6--5--|


  Q    E  E  Q    E  E     Q    E  E  Q    Q       Q    E  E  Q    E  E   
------------------------|-----------------------|------------------------|
------------------------|-----------------------|------------------------|
--2-------2--2-------2--|--2-------2--9----5----|------------------------|
------------------------|-----------------------|--0-------0--0-------0--|


  Q    E  E  Q    Q       Q    E  E  Q    E  E     Q    Q    Q    Q     
-----------------------|------------------------|----------------------|
-----------------------|------------------------|----------------------|
-------------7---------|--0-------0--0-------0--|--5----4----5----0----|
--0-------0-------7----|------------------------|----------------------|


  W                   W                   Q    E  E  Q    E  E   
-------------------|-------------------|------------------------|
-------------------|-------------------|------------------------|
--2----------------|--L----------------|--2----L--2--2----L--2--|
-------------------|-------------------|------------------------|


  Q    Q    Q    Q       Q    E  E  Q    E  E     Q    E  E  Q    Q     
----------------------|------------------------|-----------------------|
----------------------|------------------------|-----------------------|
--2---------9----5----|------------------------|-------------7---------|
----------------------|--0-------0--0-------0--|--0-------0-------7----|


  Q    E  E  Q    E  E     Q    Q    Q    Q       W                 
------------------------|----------------------|-------------------|
------------------------|----------------------|-------------------|
--0----L--0--0----L--0--|--5----4----5----0----|-------------------|
------------------------|----------------------|--3----------------|


  W                   Q    E  E  E  E  E  E     E  E  E  E  E  E  E  E   
-------------------|-------------------------|--------------------------|
-------------------|-------------------------|--------------------------|
-------------------|--2-------2--2--2-----2--|--2--2-----2--2--2-----2--|
--5----------------|-------------------------|--------------------------|


  Q    E  E  E  E  E  E     Q    E  E  E  E  E  E     Q    E  E  E  E  E  E   
-------------------------|-------------------------|-------------------------|
-------------------------|-------------------------|-------------------------|
-------------------------|-------------------------|--2-------2--2--2-----2--|
--0-------0--0--0-----0--|--2-------2--2--2-----2--|-------------------------|


  E  E  E  E  E  E  E  E     Q    E  E  E  E  E  E     Q    E  E  E  E  E  E   
--------------------------|-------------------------|-------------------------|
--------------------------|-------------------------|-------------------------|
--2--2-----2--2--2-----2--|-------------------------|-------------------------|
--------------------------|--0-------0--0--0-----0--|--2-------2--2--2-----2--|


  Q    E  E  E  E  E  E     E  E  E  E  E  E  E  E     Q    E  E  E  E  E  E   
-------------------------|--------------------------|-------------------------|
-------------------------|--------------------------|-------------------------|
--2-------2--2--2-----2--|--2--2-----2--2--2-----2--|-------------------------|
-------------------------|--------------------------|--0-------0--0--0-----0--|


  Q    E  E  E  E  E  E     Q    E  E  E  E  E  E     E  E  E  E  E  E  E  E   
-------------------------|-------------------------|--------------------------|
-------------------------|-------------------------|--------------------------|
-------------------------|--2-------2--2--2-----2--|--2--2-----2--2--2-----2--|
--2-------2--2--2-----2--|-------------------------|--------------------------|


  Q    E  E  E  E  E  E     Q    Q    Q    Q       W                 
-------------------------|----------------------|-------------------|
-------------------------|----------------------|-------------------|
-------------------------|--5----4----5----4----|--2----------------|
--0-------0--0--0-----0--|----------------------|-------------------|


  H        H           W                   W                 
--------------------|-------------------|-------------------|
--------------------|-------------------|-------------------|
--3--------5--------|-------------------|-------------------|
--------------------|--0----------------|--L----------------|


  W                   W                   W                   W                 
-------------------|-------------------|-------------------|-------------------|
-------------------|-------------------|-------------------|-------------------|
-------------------|-------------------|-------------------|-------------------|
--L----------------|--L----------------|--0----------------|--L----------------|


  W                   W                   Q    E  S S E  S S E  E   
-------------------|-------------------|---------------------------|
-------------------|-------------------|---------------------------|
-------------------|-------------------|--5----7----------------5--|
--0----------------|--L----------------|----------0-0-0--0-0-0-----|


  E  E  E  H        E     Q    E  S S E  S S E  E     E  E  E  H        E   
-----------------------|---------------------------|-----------------------|
-----------------------|---------------------------|-----------------------|
-----------3--------L--|--5----7----------------5--|-----------------------|
--0--0--0--------------|----------0-0-0--0-0-0-----|--0--0--5--5--------L--|


  E  E  E  E  E  E  E  E     E  E  E  E  E  E  E  E   
--------------------------|--------------------------|
--------------------------|--------------------------|
--------------------------|--------------------------|
--0--0--0--0--0--0--0--0--|--0--0--0--0--0--0--0--0--|


  E  E  E  E  E  E  E  E     E  E  E  E  E  E  E  E   
--------------------------|--------------------------|
--------------------------|--------------------------|
--------------------------|--------------------------|
--0--0--0--0--0--0--0--0--|--0--0--0--0--0--0--0--0--|


  Q    E  S S E  S S E  E     E  E  E  H        E     Q    E  S S E  S S E  E   
---------------------------|-----------------------|---------------------------|
---------------------------|-----------------------|---------------------------|
--5----7----------------5--|-----------3--------L--|--5----7----------------5--|
----------0-0-0--0-0-0-----|--0--0--0--------------|----------0-0-0--0-0-0-----|


  E  E  E  H        E     E  E  E  E  E  E  E  E     E  E  E  E  E  E  E  E   
-----------------------|--------------------------|--------------------------|
-----------------------|--------------------------|--------------------------|
-----------------------|--3--3--3--3--3--3--3--3--|--3--3--3--3--3--3--3--3--|
--0--0--5--5--------L--|--------------------------|--------------------------|


  E  E  H        Q       E  E  H        Q       E  E  E  E  E  E  E  E   
----------------------|----------------------|--------------------------|
----------------------|----------------------|--------------------------|
--0-----2--------L----|--0-----2--------L----|--3--3--3--3--3--3--3--3--|
----------------------|----------------------|--------------------------|


  E  E  E  E  E  E  E  E     E  E  E  E  E  E  E  E     E  E  E  H        E   
--------------------------|--------------------------|-----------------------|
--------------------------|--------------------------|-----------------------|
--3--3--3--3--3--3--3--3--|--------------------------|--------3--3--------L--|
--------------------------|--0--0--0--0--0--0--0--0--|--0--0-----------------|


  E  E  E  E  E  E  E  E     E  E  E  H        E     E  E  E  E  E  E  E  E   
--------------------------|-----------------------|--------------------------|
--------------------------|-----------------------|--------------------------|
--------------------------|-----------------------|--------------------------|
--0--0--0--0--0--0--0--0--|--0--0--5--5--------L--|--0--0--0--0--0--0--0--0--|


  E  E  E  H        E     E  E  E  E  E  E  E  E   
-----------------------|--------------------------|
-----------------------|--------------------------|
--------3--3--------L--|--------------------------|
--0--0-----------------|--0--0--0--0--0--0--0--0--|


   E   E   E  E  E  E  E  E     E  E  E  S S E  S S E  E   
-----------------------------|----------------------------|
-----------------------------|----------------------------|
-----------------------------|-----------0-0-0--0-0-0-----|
--12--11--10--9--8--7--6--5--|--3--3--5----------------3--|


  E  E  E  E  E  E  E  E      E  E  H.             
--------------------------|----------------------||
--------------------------|----------------------||
--------5--7-----5--7-----|--10--7---------------||
-----0--------------------|----------------------||




Duration Legend
---------------
W - whole
H - half
Q - quarter
E - 8th
S - 16th
T - 32nd
X - 64th
. - note dotted
|-n-|  - n-tuplets


Tablature Legend
----------------
L - tied note
x - dead note
g - grace note
(n) - ghost note
> - accentuded note
NH - natural harmonic
AH - artificial harmonic
TH - tapped harmonic
SH - semi harmonic
PH - pitch harmonic
h - hammer on
p - pull off
b - bend
br - bendRelease
pb - preBend
pbr - preBendRelease
brb - bendReleaseBend
\n/ - tremolo bar dip
\n - tremolo bar dive
-/n - tremolo bar Release up
/n\ - tremolo bar inverted dip
/n - tremolo bar return
-\n - tremolo bar Release down
S - shift slide
s - legato slide
/ -  slide into from below or out of upwards
\ -  slide into from above or out of downwards
~ - vibrato
W - wide vibrato
tr - trill
TP - tremolo picking
T - tapping
S - slap
P - pop
< - fade in
^ - brush up
v - brush down

            
            
Suggest correction
Creating personal tab
Creating personal tab
You can edit any tab online and save it as your Personal.

You can edit, replace or remove any tab part or add personal notes – all changes will be seen only by you.

Personal tabs can be accessed anytime from any device, even offline.
Learn more »
Give kudos to tab author, rate the tab!
1 2 3 4 5
comments
print report bad tab
guest
You may want to rate the tab now too:
select rating
Wanna post a correction for this tab? Suggest correction