Oops, an error
Loading. Please wait.

Stalingrad Tab

version 1
version 1

Whole song

Interactive

5,870 views 15 this week
2 commentsread comments
1 2 3 4 5
not so good
x 1
add to favorites
launch autoscroll
font size
0
reset
how to read this tab
guitar tuner
Tab Pro tools
  • play this tab
  • loop segment
  • change instrument
  • show fretboard
  • metronome
Autoscroll
slow
fast
+/-
esc
set tempo
stop
Contributor
Difficulty
novice
Tabbed by milkaman

Tuning: Standard
Intro
e|-------------------------------------------------------|
H|-------------------------------------------------------|
G|-6--------9---8---6------------------------------------|
D|-------------------------6---------4---------6---9---6-|
A|-------------------------------------------------------|
E|-------------------------------------------------------|
 |
 |
 |
e|-------------------------------------------------------|
H|-------------------------------------------------------|
G|-------------------------------------------------------|
D|-6---------------------------------------------------6-|
A|-4---------------------------------4-----------------4-|
E|-----------------------------------2-------------------|


e|-------------------------------------------------------|
H|-------------------------------------------------------|
G|-6--------9---8---6------------------------------6---6-|
D|-------------------------6---------9---------9---------|
A|-------------------------------------------------------|
E|-------------------------------------------------------|
 |
 |
 |
e|-------------------------------------------------------|
H|-------------------------------------------------------|
G|-------------------------------------------------------|
D|-6---------------------------------4-----------------6-|
A|-4----------------4----------------2-----------------4-|
E|------------------2------------------------------------|


Verse

e|-------------------------------------------------------|
H|-------------------------------------------------------|
G|-----------------------------------------6---7---4-----|
D|-----------------------------------------6---7---4-----| 2x
A|-2-----------------------------------------------------|
E|-0---0-0-0-0-0-0-0-0-0-0-0-0-0-0-0-0-0-0---------------|

e|-------------------------------------------------------|
H|-------------------------------------------------------|
G|-------------------------------------------------------|
D|-------------------------------------------------------|
A|-5-----------------------4------3------2---------------|
E|-3---3-3-3-3-3-3-3-3-3-3-2------1------0-0-0-0-0-0-0-0-|

e|-------------------------------------------------------|
H|-------------------------------------------------------|
G|-------------------------------------------------------|
D|-------------------------------------------------------|
A|-------------------------------------------------------|
E|-3-0-0-5-0-0-6-0-0-3-2-1-0-----------------------------|


Interlude

e|-------------------------------------------------------|
H|-5---5---5---5---5---5---5---5-------------------------|
G|---4---4---4---4---3---3---3---3-----------------------|
D|-------------------------------------------------------|
A|-------------------------------------------------------|
E|-------------------------------------------------------|
 |
 |
e|-------------------------------------------------------|
H|-------------------------------------------------------|
G|-------------------------------------------------------|
D|-------------------------------------------------------|
A|-2------5--------4-------3-----------------------------|
E|-0--0-0-3--------2-------1-----------------------------|

Chorus like Interlude


e|---------------------------------------------------------------|
H|---------------------------------------------------------------|
G|-------0------------0------------------------------------------|
D|-------0------------0------------------------------------------|
A|---------------------------------------------------------------|
E|-0-0-0--------0-0-0--------------------------------------------|
                        "Stalingrad"
comments
We did not receive enough feedback on this tab! Please rate:
print report bad tab
1 2 3 4 5
2 comments total.
-1 reply
Ich 666 wrote on May 3 2012, 04:48 pm

melody goes like this:


e|-------------------------------------------------------|
H|-------------------------------------------------------|
G|-6--------9---8---6------------------------------------|
D|-------------------------6---------4---------7---9---6-|
A|-------------------------------------------------------|
E|-------------------------------------------------------|


Havent checked the riff behind it yet, but the Verse definitely sounds off, more likely to be like this:


e|-------------------------------------------------------|
H|-------------------------------------------------------|
G|-------------------------------------------------------|
D|-------------------------------------------4---5---2---|
A|-2-----------------------------------------4---5---2---|
E|-0---0-0-0-0-0-0-0-0-0-0-0-0-0-0-0-0-0-0---------------|



e|-------------------------------------------------------|
H|-------------------------------------------------------|
G|-------------------------------------------------------|
D|-------------------------------------------------------|
A|-------------------------2-----------------------------|
E|-3p0-0-5p0-0-6p0-0-6-5-3-0-----------------------------|


I have no clue when the interlude is played, the lead voice doesnt make sense to me. Id play the chorus like this, also you left out the last part of the riff:

e|---------------------------------------------------------------|
H|---------------------------------------------------------------|
G|---------------------------------------------------------------|
D|-------5------------5-----------------5-----------7-----5------|
A|-------5------------5-----------------5-----------7-----5------|
E|-0-0-0--------0-0-0----------0-0-0-----------------------------|

(note: playing on the lower strings for fatter sound)

Too bad you also left out most variations of the main riffs (under the solo for example), the breaks and the slow guitar solos.

2/5

0 reply
powerpino1 wrote on June 26 2014, 08:14 am

the verse riff is with this chords

|---------------------------------------------------|
|---------------------------------------------------|
|-5---------------7-8-5-----------------------------|
|-5---------------7-8-5-----------------------------|
|-3---------------5-6-3-----------------------------|
|---------------------------------------------------|

I want to post or [tab]
guest
You may want to rate the tab now too:
select rating
Please do not post tabs as comments. Select "correction" instead!