Oops, an error
Loading. Please wait.

Teutonic Terror tab

version 2
version 2

Whole song

by Accept
2,371 views 1 this week
1 commentread comment
1 2 3 4 5
2 more votes to show rating
add to favorites
×
Save as Personal and add changes to this tab that will be seen only by you. Learn more ›
×
You can save this tab as Personal to edit and correct it or add notes. All changes will be seen only by you. Learn more »
launch autoscroll
font size
0
reset
how to read this tab
guitar tuner
backing track
0:00
0:00
edit
Autoscroll
slow
fast
+/-
esc
set tempo
stop
Last updated: 10/31/10
Tuning: standard EADGBE
Song learnt by ear

Legend:
^ - bend
^(3) - bend to 3
s - slide
h - hammer on
p - pull off
vv- vibrato
\ - tremolo/whammy bar
* - pinch harmonic
[]- natural harmonic
PM--] - palm mute

  INTRO
Guitar 1
 PM-----------------]      PM---------]   
E]----------------------------------------------------| 
B]----------------------------------------------------|
G]----------------------------------------------------|
D]-------------------5s4---------------5s4---5-7------|
A]-2-2-2-2-2-2-2-2-2-5s4-2-2-2-2-2-2-2-5s4---5-7------|
E]-0-0-0-0-0-0-0-0-0-3s2-0-0-0-0-0-0-0-3-2-0-3-5------|


Guitar 2
E]-0---0---0--0--0-------0---0---0--0--0--0-------0---0---0--0--0----------| 
B]-12--12--12-12-12vvv---11--11--11-11-11-11vvv---10--10--10-10-10vvv------|
G]-------------------------------------------------------------------------|
D]-------------------------------------------------------------------------|
A]-------------------------------------------------------------------------|
E]-------------------------------------------------------------------------|
                                                                        
Not sure if this part is correct 
                                        
Guitar 1                                                                        
E]----------------------------------------------------------------------|           
B]----------------------------------------------------------------------|          
G]-------7-----------7--------------------------------------------------|         
D]-5-7-9---9-7-5-7-9---9-7----------------------------------------------|        
A]----------------------------------------------------------------------|       
E]----------------------------------------------------------------------| 

Guitar 2
E]----------------------------------------------------------------------|           
B]-----5-7-5-------5-7-5------------------------------------------------|          
G]-4-7-------7-4-7-------7----------------------------------------------|         
D]----------------------------------------------------------------------|        
A]----------------------------------------------------------------------|       
E]----------------------------------------------------------------------|  


Guitar 1
E]--------------------------------------------------|
B]--------------------------------------------------|
G]--------------------------------------------------|
D]-2------------------------------------------------|
A]-2------------------------------------------------|
E]-0------------------------------------------------|

Guitar 2
E]--------------------------------------------------|
B]-------[5]\-------[3]\----------------------------|
G]--------------------------------------------------|
D]--------------------------------------------------|
A]--------------------------------------------------|
E]--------------------------------------------------|

VERSE
Both Guitars
 PM--------------------------------------------------------------|
E]---------------------------------------------------------------| 
B]---------------------------------------------------------------|
G]---------------------------------------------------------------|
D]---------------------------------------------------------------|
A]---2-2-2-2-2-2-2-2-2-2-2-2-2-2-2-2-2-2-2-2-2-2-2-2-2-2-2-------|
E]-0-2-3-0-0-0-0-0-0-0-0-0-0-2-3-0-0-0-0-0-0-0-0-0-0-2-3-0-------|
                                                               
 PM-------------------]         PM-----------------------------|                    
E]-------------------------------------------------------------|                 
B]-------------------------------------------------------------|                
G]-------------------------------------------------------------|               
D]---------------------8s7s5-7---------------------------------|              
A]-2-2-2-2-2-2-2-2-2---8s7s5-7---------------------------------|             
E]-0-0-0-0-0-0-0-0-0-0-6s5s3-5---4-5-7-5-----------------------|  

PRE CHORUS
Guitar 1
E]----------------------------|
B]----------------------------|
G]-5------------7--------9----|
D]-5------------7--------9----|
A]-3------------5--------7----|
E]----------------------------|

Guitar 2
E]-------------------------------------|
B]-------------------------------------|
G]-------------------------------------|
D]-2h4s5--4--2--4--2-----2-------------|
A]--------------------5-----5--0--2----|
E]-------------------------------------|

Guitar 1                 PM---------------------------|
E]----------------------------------------------------|
B]----------------------------------------------------|
G]-5------------7-------------------------------------|
D]-5------------7-------------------------------------|
A]-3------------5---------2-2-2-2-2-2-2-2-2-2-2-2-----|
E]------------------------0-0-0-0-0-0-0-0-0-0-0-0-----|

Guitar 2
E]------------------------|
B]------------------------|
G]------------------------|
D]-5--4--2--4--2-----2----|
A]----------------5-------|
E]------------------------|

Guitar 1
E]----------------------------|
B]----------------------------|
G]-5------------7-------------|
D]-5------------7--------5----|
A]-3------------5--------5----|
E]-----------------------3----|

Both Guitars
E]----------------------------|
B]----------------------------|
G]----------------------------|
D]-7---------------------9----|
A]-7---------------------9----|
E]-5---------------------7----|

CHORUS
Guitar 1
 PM-------------------------------------------|
E]--------------------------------------------|
B]--------------------------------------------|
G]--------------------------------------------|
D]--------------------------------------------|
A]-2-2-2-2---2-2-2-2---2-2-2-2-2--2-2-2-2-----|
E]-0-0-0-0---0-0-0-0---0-0-0-0-0--0-0-0-0-----|

Guitar 2
   PM----------------------------------------------|
E]-------------------------------------------------|
B]-------------------------------------------------|
G]-------------------------------------------------|
D]-5-------4-5-7-------5-7-9-----7-----5-----------|
A]---7-7-7-------7-7-7-------7-7---7-7---7-7-7-----|
E]-------------------------------------------------|

Guitar 1
 PM--------------------------------|
E]---------------------------------|
B]---------------------------------|
G]-----------7-------9-------7-----|
D]-----------7-------9-------7-----|
A]-2-2-2-2---5-------7-------5-----|
E]-0-0-0-0-------------------------|

Guitar 2
 PM--------------------------------------|
E]---------------------------------------|
B]---------------------------------------|
G]-----------------7-------9-------7-----|
D]---4-5-----5-----7-------9-------7-----|
A]-7-----7-7---7-7-5-------7-------5-----|
E]---------------------------------------|

Guitar 1
 PM--------------------------------------|
E]---------------------------------------|
B]---------------------------------------|
G]---------------------------------5-----|
D]---------------------------------5-----|
A]-2-2-2-2---2-2-2-2---2-2-2-2-2-2-3-----|
E]-0-0-0-0---0-0-0-0---0-0-0-0-0-0-------|

Guitar 2
 PM-----------------------------------------------|
E]------------------------------------------------|
B]------------------------------------------------|
G]------------------------------------------5-----|
D]---4-5-------4-5-7-------7-9-10-----9-----5-----|
A]-7-----7-7-7-------7-7-7--------7-7---7-7-3-----|
E]------------------------------------------------|

Both Guitars
E]------------------|
B]------------------|
G]-7----------------|
D]-7-----5--4--2----|
A]-5-----5--4--2----|
E]-------3--2--0----| x2

BRIDGE

Guitar 1
 PM-------------------------------------------]
E]---------------------------------------------|
B]---------------------------------------------|
G]---------------------------------------------|
D]---------------------------------------------|
A]-2-2-2-2---2-2-2-2---2-2-2-2-2-2-----2-2-----|
E]-0-0-0-0---0-0-0-0---0-0-0-0-0-0-3^p0-0-0----|

Guitar 2
E]-----------------------|
B]-----------------------|
G]-----------------------|
D]-9---8---7----5^--2----|
A]-----------------------|
E]-----------------------|  

SOLO

Use Wah in parts in the solo
E]------------------------------------------|
B]-14---------14----14------12-h15s17-17----|
G]-15^--------12^---15^---------------------|
D]------------------------------------------|
A]------------------------------------------|
E]------------------------------------------|

E]-----------------------------------|
B]-----------------------------------|
G]-----------------------------------|
D]-s9-9-9-9---9-7---7-----5^----2----|
A]----------------9----9-------------|
E]-----------------------------------|

E]---------------------------------------------------|
B]-12-17-15^(17)----17-15----------15----------------|
G]------------------------16-15-14----14--14--19*----|
D]---------------------------------------------------|
A]---------------------------------------------------|
E]---------------------------------------------------|

E]-19\----17-15---------15\----15p12----12----------------12----|
B]--------------17-------------------15----15p12----15p12-------|
G]-----------------------------------------------15-------------|
D]--------------------------------------------------------------|
A]--------------------------------------------------------------|
E]--------------------------------------------------------------|

Last Updated: 31/10/10
Will post more soon...very soon, I know the rest of the song apart from the rest
of the solo so keep checking through the next 2 or 3 weeks.

            
            
Suggest correction
Creating personal tab
Creating personal tab
You can edit any tab online and save it as your Personal.

You can edit, replace or remove any tab part or add personal notes – all changes will be seen only by you.

Personal tabs can be accessed anytime from any device, even offline.
Learn more »
Give kudos to tab author, rate the tab!
1 2 3 4 5
comments
print report bad tab
1 comment total.
0 reply
gambit135 10 Dec 03, 2010 10:35 PM

Looks good!
Keep it up!

guest
You may want to rate the tab now too:
select rating
Wanna post a correction for this tab? Suggest correction