Oops, an error
Loading. Please wait.

In The Cold tab

2,769 views 1 this week
1 commentread comment
1 2 3 4 5
1 last vote to show rating
add to favorites
×
Save as Personal and add changes to this tab that will be seen only by you. Learn more ›
×
You can save this tab as Personal to edit and correct it or add notes. All changes will be seen only by you. Learn more »
launch autoscroll
font size
0
reset
how to read this tab
guitar tuner
edit
Autoscroll
slow
fast
+/-
esc
set tempo
stop
Artist: Acceptance
Title: In The Cold (Phantoms)
Standard Tuning (E A D G B E)
Tabbed by: Lloyd Shin
Email: nosebluntslide@gmail.com


Intro (Lead)
note: play first part twice, end on second part
e|-------------------------------------4-------------|----|
B|--5p0-4h5p0--5p0-4h5p0--5p0-4p0-2p0----5-4-5-4-----|----|
G|-----------------------------------------------6-4-|-6~-|
D|---------------------------------------------------|----|
A|---------------------------------------------------|----|
E|---------------------------------------------------|----|

Intro (Rhythm)
e|--0~--0~-------0~--|
B|--0~--0~-------0~--|
G|--6~--2~--1--4/6~--|
D|--6~--2~--2--4/6~--| x2
A|--4~--0~--2--2/4~--|
E|----------0--------|

Verse (Lead)
note: come in after like 12 measures or so, play this, 
wait another 2 1/2 measures and play it again
e|-----------|
B|-----------|
G|--9-9-9-9--|
D|--x-x-x-x--|
A|--7-7-7-7--|
E|-----------|

Verse (Rhythm)
note: play first part 4 times, end on second part
e|---------------------|-0~-0~-|
B|---------------------|-0~-0~-|
G|-4/6--22----22-------|-2~-2~-|
D|-4/6--22-22-22-22-44-|-2~-2~-|
A|-2/4--00-22-00-22-44-|-0~-0~-|
E|---------00----00-22-|-------|

Chorus (Lead)
note: hard to hear, so it might be really off, but sounds okay...
e|------------|
B|------------|
G|--8/9-8-4-6-|
D|--x/x-x-x-x-|
A|--6/7-6-2-4-|
E|------------|

Chorus (Rhythm)
e|----------------------|
B|---------------00-000-|
G|-66-666--------22-222-|
D|-66-666-22-222-22-222-| x4
A|-44-444-22-222-00-000-|
E|--------00-000--------|

Intro (Lead)
e|-------------------------------------4----------------|
B|--5p0-4h5p0--5p0-4h5p0--5p0-4p0-2p0----5-4-5-4--------|
G|-----------------------------------------------6-4-6~-|
D|------------------------------------------------------|
A|------------------------------------------------------|
E|------------------------------------------------------|

Intro (Rhythm)
e|--0~--0~-------0~--|
B|--0~--0~-------0~--|
G|--6~--2~--1--4/6~--|
D|--6~--2~--2--4/6~--| 
A|--4~--0~--2--2/4~--|
E|----------0--------|

Verse (Lead)
note: come in after like 12 measures or so, first part, 
wait another 2 1/2 measures and second part
e|----------|----------|
B|----------|----------|
G|----------|-9-9-9-9--|
D|----------|-x-x-x-x--|
A|-44444444-|-7-7-7-7--|
E|----------|----------|
  PM........

Verse (Rhythm)
note: play first part 4 times, end on second part
e|---------------------|-0~-0~-|
B|---------------------|-0~-0~-|
G|-4/6--22----22-------|-2~-2~-|
D|-4/6--22-22-22-22-44-|-2~-2~-|
A|-2/4--00-22-00-22-44-|-0~-0~-|
E|---------00----00-22-|-------|

Chorus (Lead)
e|------------|
B|------------|
G|--8/9-8-4-6-|
D|--x/x-x-x-x-| x4
A|--6/7-6-2-4-|
E|------------|

Chorus (Rhythm)
e|----------------------|
B|---------------00-000-|
G|-66-666--------22-222-|
D|-66-666-22-222-22-222-| x4
A|-44-444-22-222-00-000-|
E|--------00-000--------|

Bridge-sorta deal (Lead)
note: play this twice quarter notes, then in 8th notes twice, then play this 4 times over again
e|--------------------------|-0~-|
B|--------------------------|-0~-|
G|-9-8-4~-4/6~--9-8-4~-4/6~-|-2~-|
D|-x-x-x~-x/x~--x-x-x~-x/x~-|-2~-| x8
A|-7-6-2~-2/4~--7-6-2~-2/4~-|-0~-|
E|--------------------------|----|

Bridge-sorta deal (Lead)
note: listen to the song, and you'll hear when to play this...
e|----------------------|
B|---------------00-000-|
G|-66-666--------22-222-|
D|-66-666-22-222-22-222-| x4
A|-44-444-22-222-00-000-|
E|--------00-000--------|

note: this is played too, at the end, again, listen to the song. 
but you'll end the song playing the last riff over and over again...
e|-------------------------------------4-------------|
B|--5p0-4h5p0--5p0-4h5p0--5p0-4p0-2p0----5-4-5-4-----|
G|-----------------------------------------------6-4-|
D|---------------------------------------------------|
A|---------------------------------------------------|
E|---------------------------------------------------|

            
            
Suggest correction
Creating personal tab
Creating personal tab
You can edit any tab online and save it as your Personal.

You can edit, replace or remove any tab part or add personal notes – all changes will be seen only by you.

Personal tabs can be accessed anytime from any device, even offline.
Learn more »
Give kudos to tab author, rate the tab!
1 2 3 4 5
comments
print report bad tab
1 comment total.
0 reply
breathnac 56 Jun 13, 2015 11:15 AM

One correction to the verse
e|---------------------|-0~-0~-|
B|---------------------|-0~-0~-|
G|-4/6--44----22-------|-2~-2~-|
D|-4/6--44-22-22-22-44-|-2~-2~-|
A|-2/4--22-22-00-22-44-|-0~-0~-|
E|---------00----00-22-|-------|

Also the intro lead has too many notes I think maybe something like this:

(Ending the Second time)
e|-------------------------------------4p0-----------|4p0---------------|
B|--5p0-4h5p0--5p0-4h5p0--5p0-4p0-2p0-----4p0-5/4/2p0|---4p0-5/4/2p0----|
G|---------------------------------------------------|--------------4/6-|
D|---------------------------------------------------|------------------|
A|---------------------------------------------------|------------------|
E|---------------------------------------------------|------------------|

Good tab though helped me map out the chords. It can be hard to differentiate notes when bands use distortion.

guest
Wanna post a correction for this tab? Suggest correction