Oops, an error
Loading. Please wait.

Slaapliedje tab

187 views 9 this week
no commentswrite comment
1 2 3 4 5
3 more votes to show rating
add to favorites
×
Save as Personal and add changes to this tab that will be seen only by you. Learn more ›
×
You can save this tab as Personal to edit and correct it or add notes. All changes will be seen only by you. Learn more »
launch autoscroll
font size
0
reset
how to read this tab
guitar tuner
edit
Autoscroll
slow
fast
+/-
esc
set tempo
stop
About this tab version
The second half is a bit different from the original song, since Acda en de Munnik play that part with two guitars. Was this info helpful? Yes No
e|-----3-------3---|-----3-------3---|-----3-------3---|-----3-------3----|
B|-------3-------3-|-------3-------3-|-------3-------3-|-------3-------3--|
G|---2-------0-----|---0-------0-----|---2-------0-----|---0-------0------|
D|-0---------------|-----------------|-0---------------|------------------|
A|---------3-------|-----------------|---------3-------|------------------|
E|-----------------|-3-------3-------|-----------------|-3-------3--------|


e|-----3-------3---|-----3-------3---|-----3-------3---|-----3-------3---|
B|-------3-------3-|-------3-------3-|-------3-------3-|-------3-------3-|
G|---2-------0-----|---0-------0-----|---2-------0-----|---0-------0-----|
D|-0---------------|-----------------|-0---------------|-----------------|
A|---------3-------|---------2-------|---------3-------|---------2-------|
E|-----------------|-3---------------|-----------------|-3---------------|
 Laat me zitten in het donker         Laat me zitten in de nacht   

e|-----3-------3---|-----3-----------|---------3-------|-----------------|
B|-------3-------3-|-------3-----3---|-----1-----1---1-|-----1-----------|
G|---2-------0-----|---0-------------|-----0-------0---|-------0---0---0-|
D|-0---------------|-----------2-----|---2---2---------|---2-------------|
A|---------3-------|---------3-----2-|-0---------------|-0-------2---3---|
E|-----------------|-3---------------|-----------------|-----------------|
Ik zie je schaduw in het duister, ga maar slapen, 'k hou de wacht

e|-----3-------3---|-----3-------3---|-----3-------3---|-----3-------3---|
B|-------3-------3-|-------3-------3-|-------3-------3-|-------3-------3-|
G|---2-------0-----|---0-------0-----|---2-------0-----|---0-------0-----|
D|-0---------------|-----------------|-0---------------|-----------------|
A|---------3-------|---------2-------|---------3-------|---------2-------|
E|-----------------|-3---------------|-----------------|-3---------------|
Laat me zachtjes voor je zingen      Een lied wat net nog niet bestond

e|-----3-------3---|-----3-------3---|-------0-2-0-----|-------0-2-0-----|
B|-------3-------3-|-------3-------3-|-----3-------3---|-----3-------3---|
G|---2-------0-----|---0-------0-----|---2-----------2-|---2-----------2-|
D|-0---------------|-----------------|-0---------------|-0---------------|
A|---------3-------|---------2-------|-----------------|-----------------|
E|-----------------|-3---------------|-----------------|-----------------|
Een lied wat morgen weer verandert en zo nooit wordt afgerond

e|-----------------|-----------------|-------------------|-------0-2-0------|
B|-----1---0-------|-----1---0-------|-----1---------1---|-----3-------3----|
G|---0---0-0-0---0-|---0---0-0-0---0-|---0---0-----0---0-|---2-----------2--|
D|-------------0---|-------------0---|---------0h2-------|-0----------------|
A|-3---------------|-3---------------|-3-----------------|------------------|
E|-----------------|-----------------|-------------------|------------------|
Laat me zitten     Laat me zingen    Van zo blij dat ik er ben

e|-----------------|-----------------|-----------------|-----------------|
B|-----1---0-------|-----1---0-------|-----1-----------|-----2-------3---|
G|---0---0-0-0---0-|---0---0-0-0---0-|---0---------0---|-----------2---2-|
D|-------------0---|-------------0---|-----------0---0-|---2---2-0-------|
A|-3---------------|-3---------------|-3-----3-2-------|-0---------------|
E|-----------------|-----------------|-----------------|-----------------|
Van je ogen, je lach, je tranen, die dingen, die ik zelfs hier in het donker nog herken

e|-0-------------0-2-0--------|
B|---3---3-----3-------3------|
G|-----2-----2-----------2----|
D|---------0------------------|
A|----------------------------|
E|----------------------------|


e|-----3-------3---|-----3-------3---|-----3-------3---|-----3-------3---|
B|-------3-------3-|-------3-------3-|-------3-------3-|-------3-------3-|
G|---2-------0-----|---0-------0-----|---2-------0-----|---0-------0-----|
D|-0---------------|-----------------|-0---------------|-----------------|
A|---------3-------|---------2-------|---------3-------|---------2-------|
E|-----------------|-3---------------|-----------------|-3---------------|
Geef je over aan de donker           Laat je vallen in de nacht

e|-----3-------3---|-----3-----------|---------3-------|-----------------|
B|-------3-------3-|-------3-----3---|-----1-----1---1-|-----1-----------|
G|---2-------0-----|---0-------------|-----0-------0---|-------0---0---0-|
D|-0---------------|-----------2-----|---2---2---------|---2-------------|
A|---------3-------|---------3-----2-|-0---------------|-0-------2---3---|
E|-----------------|-3---------------|-----------------|-----------------|
Vergeet alles wat er was, weet dat ik morgen op je wacht

e|-----3-------3---|-----3-------3---|-----3-------3---|-----3-------3---|
B|-------3-------3-|-------3-------3-|-------3-------3-|-------3-------3-|
G|---2-------0-----|---0-------0-----|---2-------0-----|---0-------0-----|
D|-0---------------|-----------------|-0---------------|-----------------|
A|---------3-------|---------2-------|---------3-------|---------2-------|
E|-----------------|-3---------------|-----------------|-3---------------|
Gaan we morgen samen spelen          Gaan we lachen in de zon

e|-----3-------3---|-----3-------3---|-------0-2-0-----|-------0-2-0-----|
B|-------3-------3-|-------3-------3-|-----3-------3---|-----3-------3---|
G|---2-------0-----|---0-------0-----|---2-----------2-|---2-----------2-|
D|-0---------------|-----------------|-0---------------|-0---------------|
A|---------3-------|---------2-------|-----------------|-----------------|
E|-----------------|-3---------------|-----------------|-----------------|
Ik zal je zingen van het leven en hoe dat pas bij jou begon

e|-----------------|-----------------|-------------------|-------0-2-0------|
B|-----1---0-------|-----1---0-------|-----1---------1---|-----3-------3----|
G|---0---0-0-0---0-|---0---0-0-0---0-|---0---0-----0---0-|---2-----------2--|
D|-------------0---|-------------0---|---------0-2-------|-0----------------|
A|-3---------------|-3---------------|-3-----------------|------------------|
E|-----------------|-----------------|-------------------|------------------|
Geef je over       Ik zal je zingen van een wereld zonder pijn

e|-----------------|-----------------|-----------------|-----------------|
B|-----1---0-------|-----1---0-------|-----1-----------|-----2-------3---|
G|---0---0-0-0---0-|---0---0-0-0---0-|---0---------0---|-----------2---2-|
D|-------------0---|-------------0---|-----------0---0-|---2---2-0-------|
A|-3---------------|-3---------------|-3-----3-2-------|-0---------------|
E|-----------------|-----------------|-----------------|-----------------|
Je hoeft niet te weten, van die dingen, alleen zo hier met mij samen te zijn

e|-0-------------0-|-2-0--------------|
B|---3---3-----3---|-----3------------|
G|-----2-----2-----|-------2----------|
D|---------0-------|----------0-0-1-2-|
A|-----------------|------------------|
E|-----------------|------------------|


e|-----0-----------|-------3----3-0-|-----0---------|-----------------|
B|---0---0-----2---|-----1----1-----|---0---0-----2-|-----4-------4---|
G|-----------------|---0------------|-------------2-|-----4-------4---|
D|-2---------2---2-|----------------|-2---------2---|---4---4---4---4-|
A|---------0-------|-3--------------|---------0-----|-2-------2-------|
E|-----------------|----------------|---------------|-----------------|
        En te horen van een leven      waarin de liefde weer regeert

e|-------3-----2---|-------------------|------------------|-------0--2-0------|
B|-----1-------3---|-----1-------------|-----1--------1---|-----3--------3----|
G|---0-------2---2-|---0---0-------0---|---0---0----0---0-|---2------------2--|
D|---------0-------|-------------0-----|------------------|-0-----------------|
A|-3---------------|-3---------2-------|-3--------3-------|-------------------|
E|-----------------|---------3---------|------------------|-------------------|
En te geloven, al is het maar even,    dat de haat wordt aangeleerd

e|-----0--------|----------------|--------------2---|----------------------|
B|---0---0-----2|-----4-------4--|-----1--------3---|-----1-----------0----|
G|-------------2|-----4-------4--|---0---0----2---2-|---0---0-------0------|
D|-2---------2--|---4---4---4---4|----------0-------|-------------0--------|
A|---------0----|-2-------2------|-3----------------|-3---------2----------|
E|--------------|----------------|------------------|---------3------------|
Dat de mensen liever zoenen      dan dat ze vechten op het journaal

e|-----------------|-----------------|-------0-2-0-----|-------0-2-0-----|-------0-2-0-----|
B|-----2-------2---|-----1-------1---|-----3-------3---|-----3-------3---|-----3-------3---|
G|-----2-------2---|---0---0---0---0-|---2-----------2-|---2-----------2-|---2-----------2-|
D|---2---2---2---2-|-----------------|-0---------------|-0---------------|-0---------------|
A|-0-------0-------|-3-------3-------|-----------------|-----------------|-----------------|
E|-----------------|-----------------|-----------------|-----------------|-----------------|
Dat beer weer beter wordt, de poes morgen wel weer opstaat. Dat die ook slaapt en dat het goed komt allemaa-

e|-----3-------3---|-----3-------3---|-----3-------3---|-----3-------3---|
B|-------3-------3-|-------3-------3-|-------3-------3-|-------3-------3-|
G|---2-------0-----|---0-------0-----|---2-------0-----|---0-------0-----|
D|-0---------------|-----------------|-0---------------|-----------------|
A|---------3-------|---------2-------|---------3-------|---------2-------|
E|-----------------|-3---------------|-----------------|-3---------------|
aaaaaaaaaaaaaal                      Heeejeee hejee

e|-----3-------3---|-----3-------3---|-----3-------3---|-----3-------3---|
B|-------3-------3-|-------3-------3-|-------3-------3-|-------3-------3-|
G|---2-------0-----|---0-------0-----|---2-------0-----|---0-------0-----|
D|-0---------------|-----------------|-0---------------|-----------------|
A|---------3-------|---------2-------|---------3-------|---------2-------|
E|-----------------|-3---------------|-----------------|-3---------------|
Hoor me zingen van een afstand       Hoor me zingen door de nacht

e|-----3-------3---|-----3-----------|---------3-------|-----------------|
B|-------3-------3-|-------3-----3---|-----1-----1---1-|-----1-----------|
G|---2-------0-----|---0-------------|-----0-------0---|-------0---0---0-|
D|-0---------------|-----------2-----|---2---2---------|---2-------------|
A|---------3-------|---------3-----2-|-0---------------|-0-------2---3---|
E|-----------------|-3---------------|-----------------|-----------------|
Ik vraag de sterren om bescherming, 'k zie de maan die ook naar jou lacht

e|-----3-------3---|-----3-------3---|-----3-------3---|-----3-------3---|
B|-------3-------3-|-------3-------3-|-------3-------3-|-------3-------3-|
G|---2-------0-----|---0-------0-----|---2-------0-----|---0-------0-----|
D|-0---------------|-----------------|-0---------------|-----------------|
A|---------3-------|---------2-------|---------3-------|---------2-------|
E|-----------------|-3---------------|-----------------|-3---------------|
Morgenochtend ben ik bij je          Kijk je op in mijn gezicht

e|-----3-------3---|-----3-----------|---------3-------|------------------2--3---|
B|-------3-------3-|-------3-----3---|-----1-----1---1-|-----1----------3----3---|
G|---2-------0-----|---0-------------|-----0-------0---|-------0------2------0---|
D|-0---------------|-----------2-----|---2---2---------|---2--------0--------0---|
A|---------3-------|---------3-----2-|-0---------------|-0-------------------2---|
E|-----------------|-3---------------|-----------------|---------------------3---|
En een kusje voor je moeder, die daar in 't grote bed              naast je ligt



************************************

| h  Hammer-on

************************************

            
            
Suggest correction
Creating personal tab
Creating personal tab
You can edit any tab online and save it as your Personal.

You can edit, replace or remove any tab part or add personal notes – all changes will be seen only by you.

Personal tabs can be accessed anytime from any device, even offline.
Learn more »
Give kudos to tab author, rate the tab!
1 2 3 4 5
comments
print report bad tab
guest
You may want to rate the tab now too:
select rating
Wanna post a correction for this tab? Suggest correction