Oops, an error
Loading. Please wait.

74 Jailbreak album tab

by AC/DC
71,287 views 30 this week
18 commentsread comments
1 2 3 4 5
x 16
add to favorites
×
Save as Personal and add changes to this tab that will be seen only by you. Learn more ›
×
You can save this tab as Personal to edit and correct it or add notes. All changes will be seen only by you. Learn more »
launch autoscroll
font size
0
reset
how to read this tab
guitar tuner
edit
Autoscroll
slow
fast
+/-
esc
set tempo
stop
'74 Jailbreak Album
 1. Jailbreak
 2. You Ain't Got a Hold on Me
 3. Show Business
 4. Soul Stripper
 5. Baby, Please Don't Go


                                                       Jailbreak

   Main Riff (Malcolm, then Angus)
e|----------2-----|
B|----------3-----|
G|----------2-2---|
D|--0-2-x-x-0-2---|
A|--0-2-x-x---0---|
E|--0-0-x-x-------|

   Angus
e|-------|
B|-------|
G|-------|
D|-------|
A|-------|
E|--0----|

 Play Main Riff through verse

   Pre-chorus
e|------------------------------------------------------------------2--2--2--2-|
B|---------3--3--3--3---------3--3--3--3----------------------------3--3--3--3-|
G|-2-------2--2--2--2-2-------2--2--2--2-4-------1--1--1--1-4-------2--2--2--2-|
D|-2-------4--4--4--4-2-------4--4--4--4-4-------2--2--2--2-4-------0--0--0--0-|
A|-0-------0--0--0--0-0-------0--0--0--0-2-------2--2--2--2-2------------------|
E|-----------------------------------------------0--0--0--0--------------------|

   Chorus
e|-----------------|
B|-----------------|
G|-----------------|
D|-----------------|
A|-----------5-4---|
E|--0-0-/4-0-------|

   Solo
e|--17-17~~~-17-15------------15-15------------------|
B|-----------------17-15b(17)-17-17------------------|
G|-----------------------------------17~~~~~~~-14/---|
D|---------------------------------------------------|
A|---------------------------------------------------|
E|---------------------------------------------------|

e|--------------------------|
B|--------------------------|
G|--------------------------|
D|--------------------------|
A|--------------------------|
E|--5-5-5b7~~~~~~~~~~~~~~~--|

e|--19-17-19-19~~~-19-17----------17-17-------------|
B|-----------------------19-17b19----19-------------|
G|--------------------------------------------------|
D|--------------------------------------------------|
A|--------------------------------------------------|
E|---------------------------------------0----------|

 Bridge

  Spotlights!
e|-------------|
B|-------------|
G|-------------|
D|--5~~~~------|
A|--5~~~~------|
E|--5~~~~------|

  Sirens!
e|-------------|
B|--15---------|     
G|--16---------|
D|--14---------|
A|--//---------|
E|--//---------|

  Rifles! Firing!
e|----------|
B|----------|
G|--x-x-x---|
D|--x-x-x---|x2
A|--x-x-x---|
E|----------|

                                        You Ain't Got a Hold on Me


e|-10========10-8------------------8-10========10-8----------------|
B|----------------10-8========8-10------------------10-8=======----|
G|-----------------------------------------------------------------|
D|-----------------------------------------------------------------|
A|-----------------------------------------------------------------|
E|-----------------------------------------------------------------|

main riff (verse)
e|---------------------------------------------------|
B|---------------------------------------------------|
G|-5/7-7-5/7-5/7-7-5/7-------------------------------|
D|-5/7-7-5/7-5/7-7-5/7-5/7-7-5/7-5/7-7-5/7-5/7-7-5/7-|
A|-3/5-5-3/5-3/5-5-3/5-5/7-7-5/7-5/7-7-5/7-5/7-7-5/7-|
E|---------------------3/5-5-3/5-3/5-5-3/5-3/5-5-3/5-|

e|-------------------------------------------------------------|
B|-------------------------------------------------------------|
G|-5/7-7-5/7-5/7-7-5/5---------------------5/7-7-5/7-5/7-7-5/7-|
D|-5/7-7-5/7-5/7-7-5/5-3/5-5-3/5-3/5-5-3/5-5/7-7-5/7-5/7-7-5/7-|
A|-3/5-5-3/5-3/5-5-3/7-3/5-5-3/5-3/5-5-3/5-3/5-5-3/5-3/5-5-3/5-|
E|---------------------1/3-3-1/3-1/3-3-1/3---------------------|

e|---------------------------------------------------|
B|---------------------------------------------------|
G|-----------------------------------------2---5---7-|
D|-5/7-7-5/7-5/7-7-5/7-5/7-7-5/7-5/7-7-5/7-2---5---7-|
A|-5/7-7-5/7-5/7-7-5/7-5/7-7-5/7-5/7-7-5/7-0---3---5-|
E|-3/5-5-3/5-3/5-5-3-5-3/5-5-3/5-3/5-5-3/5-----------|

chorus
e|-----------------------------------|
B|-----------------------------------|
G|-7---2-------------------2---5---7-|
D|-7---2---2---4---5---7---2---5---7-|
A|-5---0---2---4---5---7---0---3---5-|
E|---------0---2---3---5-------------|

                                        Show Business

e|----------------------------------------------------------------|
B|----------------------------------------------------------------|
G|----------------------------------------------------------------|
D|-----------------------2-2-4-----2-2-4--------------------------|
A|---2-2-4-----2-2-4---0-0-0-0---0-0-0-0-----2-2-4-----2-2-4------|
E|-0-0-0-0---0-0-0-0-----------------------0-0-0-0---0-0-0-0------|

e|-------------------------------------------------------------|
B|-------------------------------------------------------------|
G|-------------------------------------------------------------|
D|-----------------------2-2-4-----2-2-4-----2-2-4-----2-2-4---|
A|---2-2-4-----2-2-4---0-0-0-0---0-0-0-0---0-0-0-0---0-0-0-0---|
E|-0-0-0-0---0-0-0-0-------------------------------------------|

e|---------------------------------------------------------------|
B|---------------------------------------------------------------|
G|---------------------------------------------------------------|
D|---------------------------------------------------2-2-2-2-2---|
A|---2-2-4-----2-2-4------2-2-4----2-2-4---4-4-4-4-4-0-0-0-0-0-2-|
E|-0-0-0-0---0-0-0-0---0-0-0-0---0-0-0-0---2-2-2-2-2-----------0-|

e|-12-12-12-10-10-10-8-8-8-7-7-7-7-7-|
B|-12-12-12-10-10-10-8-8-8-7-7-7-7-7-|
G|-----------------------------------|
D|-----------------------------------|
A|-----------------------------------|
E|-----------------------------------|

intro solo (played by guitar one while guitar two plays the intro)
e|-12-10-12===12-10-7-7===---7-7-10-7-5------------------|
B|------------------------10------------9b11r9-7p6p5-5-5-|
G|-------------------------------------------------------|
D|-------------------------------------------------------|
A|-------------------------------------------------------|
E|-------------------------------------------------------|

e|-9h10h12----12-------17-17p15p12-15p12----12-------17-15-12-17-|
B|---------12----14-12-------------------15----------------------|
G|---------------------------------------------11-12-------------|
D|---------------------------------------------------------------|
A|---------------------------------------------------------------|
E|---------------------------------------------------------------|

e|-1514p10----------12---------------------------------------------|
B|---------15p14p10----12-12-12-15-12-12-10-8--------11b12-10-8-12-|
G|--------------------------------------------10-8-9---------------|
D|-----------------------------------------------------------------|
A|-----------------------------------------------------------------|
E|-----------------------------------------------------------------|

e|------------------------------------------------|
B|-------15p12----12----17p15p12------------------|
G|-9-9-9-------12----12----------15p14p12---------|
D|----------------------------------------12-14-9-|
A|------------------------------------------------|
E|------------------------------------------------|
end solo

verse
e|--------------------------------------------------|
B|--------------------------8-8-8-8-8-8-8-8-8-8-8-8-|
G|--------------------------7-7-7-7-7-7-7-7-7-7-7-7-|
D|---7-5----5-------7-5-----6-6-6-6-6-6-6-6-6-6-6-6-|
A|-7-----7----7---7-----7---7-7-7-7-7-7-7-7-7-7-7-7-|
E|-0-5-3-0--3-0---0-5-3-0---0-0-0-0-0-0-0-0-0-0-0-0-|

chorus
e|-------------------------------------------------------------|
B|-------------------------------------------------------------|
G|-------------------------------------------------------------|
D|---2-2-4-----2-2-4-----2-2-4-----2-2-4-----------------------|
A|-0-0-0-0---0-0-0-0---0-0-0-0---0-0-0-0-----2-2-4-----2-2-4---|
E|-----------------------------------------0-0-0-0---0-0-0-0---|

e|-------------------------------------12-12-12-10-10-10-8-8-8-7-7-7-|
B|-------------------------------------12-12-12-10-10-10-8-8-8-7-7-7-|
G|-------------------------------------------------------------------|
D|---------------------4-3-4-6-7-8-9---------------------------------|
A|---2-2-4-----2-2-4-----------------0-------------------------------|
E|-0-0-0-0---0-0-0-0---2-1-2-4-5-6-7---------------------------------|

play the verse and chorus again.

guitar solo two (guitar one plays the chorus riff under this solo)
e|-----------------------------------------------------------|
B|-------------------------------------------14-14-7-7-12-12-|
G|----------------------------10-12p10p9-9-9-----------------|
D|-------12-14-14-14b15r14-12--------------------------------|
A|-12h14-----------------------------------------------------|
E|-----------------------------------------------------------|

e|-----------------------------12-12h15p14p12---------------------|
B|-8-5---5-5-5-5-3h5-5h8/10h12----------------12-12-10p8h10p8-8===|
G|-----7----------------------------------------------------------|
D|----------------------------------------------------------------|
A|----------------------------------------------------------------|
E|----------------------------------------------------------------|

e|----------------------------------|
B|-------------------12-12----------|
G|-------------------------12-15----|
D|-------------------------------14-|
A|-7-6-5-3-3-2-0--------------------|
E|---------------3~~~---------------|

e|-------------------------------------------------------|
B|-------------------------------------------------------|
G|-12-12-12-12-12-12-12-12-12-12-12-12-14-14-14-14-14-14-|
D|-------------------------------------------------------|
A|-------------------------------------------------------|
E|-------------------------------------------------------|

e|-------------------------------------------------------|
B|-------------------------------------------------------|
G|-14-14-14-14-14-14-16-16-16-16-16-16-16-16-16-16-16-16-|
D|-------------------------------------------------------|
A|-------------------------------------------------------|
E|-------------------------------------------------------|

e|-------17-17-17-17-15-15b16r15-11-12-15-15-14-15-15-19p15-15-|
B|-------------------------------------------------------------|
G|-16-16-------------------------------------------------------|
D|-------------------------------------------------------------|
A|-------------------------------------------------------------|
E|-------------------------------------------------------------|

e|-15-19-15-12-7-12-12-10-9-----------------12-9-7-10-12-|
B|--------------------------12-10-9-------8--------------|
G|----------------------------------9-7-9----------------|
D|-------------------------------------------------------|
A|-------------------------------------------------------|
E|-------------------------------------------------------|

e|----12-12-12--15p14p12h14p12-16-19-16-16----------------|
B|-15--------------------------------------12-------------|
G|--------------------------------------------14-12-14-12-|
D|--------------------------------------------------------|
A|--------------------------------------------------------|
E|--------------------------------------------------------|

e|-------------------------------------------------------------|
B|-------------------------------------------------------------|
G|-12-9-12-12--9h12-12-9h12-12-9h12-12-9h12-12-9h12-12-9h12-12-|
D|-------------------------------------------------------------|
A|-------------------------------------------------------------|
E|-------------------------------------------------------------|

e|---------------------------------------------------------|
B|---------------------------------------------------------|
G|-9h12-12-9h12-12-9h12-12-9h12-12-9h12-12-9h12-12-9p7h9-9/|
D|---------------------------------------------------------|
A|---------------------------------------------------------|
E|---------------------------------------------------------|

e|-12~~~~~~~~10-12-12p10p9------------------19===17===19===|
B|-------------------------12p10-12-10-9\------------------|
G|---------------------------------------------------------|
D|---------------------------------------------------------|
A|---------------------------------------------------------|
E|---------------------------------------------------------|

e|-17-19-19-19-17-16-17-16-17-16\-15-17-15h17p15----------|
B|-----------------------------------------------15-15b17-|
G|--------------------------------------------------------|
D|--------------------------------------------------------|
A|--------------------------------------------------------|
E|--------------------------------------------------------|

e|-------------------|
B|-15h17p15----------|
G|----------16-------|
D|-------------------|
A|-------------15-14-|
E|-------------------|
end solo

play the verse and chorus twice

guitar solo three (guitar two will play the chorus riff under this)
e|---------------------------12-10-12-7h9h10/12----------|
B|-11b12-12-12~~~-------------------------------10-12-10-|
G|---------------12-11-9-9-9-----------------------------|
D|-------------------------------------------------------|
A|-------------------------------------------------------|
E|-------------------------------------------------------|

e|--------------------------------------------------------|
B|--------------------------------------------------------|
G|-12-9-9/----------15-17-19-19-18-19-19---------18-19-19-|
D|---------12-15-17----------------------18-19-9----------|
A|--------------------------------------------------------|
E|--------------------------------------------------------|

e|------------------------------------17-15-17p15\12-12-12-12-10-12-|
B|----------------17-17----17===------------------------------------|
G|----------16-18-------18------17-17-------------------------------|
D|-18-19-19---------------------------------------------------------|
A|------------------------------------------------------------------|
E|------------------------------------------------------------------|

e|-----------------7h9h10/12-------------------------------|
B|-12h15---------------------------------------------12-12-|
G|-------12------------------14-12-14-12-12h15p12h15-------|
D|----------17-14\-----------------------------------------|
A|---------------------------------------------------------|
E|---------------------------------------------------------|

e|----------------------------------------------------------------|
B|----------------------------------------------------------------|
G|-12-15----12-12-12-12-12-12-12-12-12-12-12-12-14-14-14-14-14-14-|
D|-------14-------------------------------------------------------|
A|----------------------------------------------------------------|
E|----------------------------------------------------------------|

e|----------------------------------------------------------------|
B|----------------------------------------------------------------|
G|-14-14-14-14-14-14-16-16-16-16-16-16-16-16-16-16-16-16-16-16-16-|
D|----------------------------------------------------------------|
A|----------------------------------------------------------------|
E|----------------------------------------------------------------|

e|-------17-17-17-17--15-15b16r15-------12-12---------------|
B|--------------------------------15-15-------15-12---------|
G|-16-16--------------------------------------------14-12-9-|
D|----------------------------------------------------------|
A|----------------------------------------------------------|
E|----------------------------------------------------------|

e|-------------------12~~~~~~~~---------------------------|
B|----15----12-12-12-----------12-12-15-12----12-------12-|
G|-14----14--------------------------------12----14-12----|
D|--------------------------------------------------------|
A|--------------------------------------------------------|
E|--------------------------------------------------------|

e|-------------10-9-7-7-7~~~~~~~~|
B|-------------------------------|
G|-14p12-12-12-------------------|
D|-------------------------------|
A|-------------------------------|
E|-------------------------------|
end solo

play the verse and chorus twice

guitar solo four (same old same old)
e|-10-12-12-15b16r15-11-12-15-15-14-15-15-19p15-15-15-19-15-12-7-|
B|---------------------------------------------------------------|
G|---------------------------------------------------------------|
D|---------------------------------------------------------------|
A|---------------------------------------------------------------|
E|---------------------------------------------------------------|

e|-12-12-10-9-----------------12-9-7-10-12----12-12-12-|
B|------------12-10-9-------8--------------15----------|
G|--------------------9-7-9----------------------------|
D|-----------------------------------------------------|
A|-----------------------------------------------------|
E|-----------------------------------------------------|

e|-15p14p12h14p12-16-19-16-16----------------|
B|----------------------------12-------------|
G|-------------------------------14-12-14-12-|
D|-------------------------------------------|
A|-------------------------------------------|
E|-------------------------------------------|
end solo

then just play the chorus many times

outro solo (solo five)
e|-12-10-12---12-10--19-12--7-7h9h10-12-12---------|
B|-----------------------------------------12-10---|
G|-----------------------------------------------9-|
D|-------------------------------------------------|
A|-------------------------------------------------|
E|-------------------------------------------------|

e|-12-12p10p9--10p7-12-7-------------------------------------|
B|-----------------------5-----------------------------------|
G|-------------------------12h14p12--------------------------|
D|----------------------------------12h14p12-----------------|
A|-------------------------------------------12h14p12========|
E|-----------------------------------------------------------|

guitar two ending
e|-----------------------|
B|-----------------------|
G|-----------------------|
D|-----------------------|
A|-------------0-0-2---2-|
E|-0-0-2-2-3-3-------3-0-|

                                        Soul Stripper


e|-------------------------------------------------------------------|
B|-------------------------------------------------------------------|
G|-4---2------------------------2---4---2----------------------2--4--|
D|-4---2---2---5-----5-5-5-5-5--2---4---2---2---5---5-5-5-5-5--2--4--|
A|-2---0---2---5-----5-5-5-5-5--0---2---0---2---5---5-5-5-5-5--0--2--|
E|---------0---3-----3-3-3-3-3--------------0---3---3-3-3-3-3--------|

intro solo (played by guitar one)
guitar two will play the following while guitar one plays the solo
e|--------------------|
B|--------------------|
G|--------------------|
D|-2-2-2-2/4-4--------|
A|-0-0-0-0h2-2========|
E|--------------------| repeat this throughout the solo

guitar solo one
e|--------------------------------------------------------------|
B|------------------10------------------------------------------|
G|-7-7--========7b9----10p9-7--------------9b10-11p9p7---7------|
D|-----9----------------------7h9p7========------------9---9====|
A|--------------------------------------------------------------|
E|--------------------------------------------------------------|

e|------------------------------------------------------------|
B|------------------------------------12h14p12----12-12h15p12-|
G|-7h9p7====9h10p9-9h11p9-7h9p7----------------12-------------|
D|------------------------------7h9p7-------------------------|
A|------------------------------------------------------------|
E|------------------------------------------------------------|

e|-----------------------------------------------------------------------|
B|----------12====12h17p15p14\12----------------12h13/17-12-14-15-15-15==|
G|-14p13p11----------------------15p13p11-11h15--------------------------|
D|-----------------------------------------------------------------------|
A|-----------------------------------------------------------------------|
E|-----------------------------------------------------------------------|

e|-------------------------------------------------13b14-14====|
B|-12h15p12h15p12h15p12h15p12-------11b12-12-12-12-------------|
G|----------------------------15-12----------------------------|
D|-------------------------------------------------------------|
A|-------------------------------------------------------------|
E|-------------------------------------------------------------|

e|-13b14-14-12-14-12-14-12h14====17-14-19-19====|
B|----------------------------------------------|
G|----------------------------------------------|
D|----------------------------------------------|
A|----------------------------------------------|
E|----------------------------------------------|

e|-19-18-19-18-19-18-19-19h13====19p17h19p17----------------|
B|-------------------------------------------17p15-17b19r17-|
G|----------------------------------------------------------|
D|----------------------------------------------------------|
A|----------------------------------------------------------|
E|----------------------------------------------------------|

e|----------------19-17-19-17-19-17-19-19p15p14-23-23-23====|
B|-15-17/19\17-15-------------------------------------------|
G|----------------------------------------------------------|
D|----------------------------------------------------------|
A|----------------------------------------------------------|
E|----------------------------------------------------------|

e|-19p17----17-19------------------------------------------------|
B|-------19-------------------------------9p8p7====--------------|
G|----------------7========2-2-4-4========---------9====7====----|
D|---------------------------------------------------------------|
A|-----------------------------------------------------------2/7-|
E|---------------------------------------------------------------|
end solo

verse (played by both guitars)
e|---------9p7----5-6-7-----|
B|--------------------------|
G|--------------------------|    (x2) 
D|-12p9-----------7-8-9-----|
A|-9--------------7-8-9-----|
E|--------------------------|

pre-chorus (played by both guitars)
e|-----------------------------------------------|
B|-----------------------------------------------|
G|-------------------4-2-4--4-2-4-4--2-4-2-4-2-4-|   (x2)
D|-5-5-5-5-5-5-5-5---4-2-4--4-2-4-4--2-4-2-4-2-4-|
A|-5-5-5-5-5-5-5-5---2-0-2--2-0-2-2--0-2-0-2-0-2-|
E|-3-3-3-3-3-3-3-3-------------------------------|

chorus (played by both guitars)
e|-------------------------|     --------------|
B|-------------------------|     --------------|
G|-4--------2-------4---4--|(x2) --------------|
D|-4--------2---2---4---4--|     --------------|
A|-2--------0---2---2---2--|     --0-4-5-6-7-0-|
E|--------------0----------|     --------------|

then repeat the verse, pre-chorus and chorus again

main solo (played by guitar one)
guitar two will play the chorus riff under the solo

guitar solo two
e|------------------------------------------|
B|-------------------------12-10-8----------|
G|---7-9--9b10r9-7-7h9p7\4---------10-8-6---|
D|-9----------------------------------------|
A|------------------------------------------|
E|------------------------------------------|

e|-------------------------------------------------------------------|
B|-10-9-7-10---------------------------------------------------------|
G|-----------10-9-7-10-----------------------15-14-12-14b15r14-15====|
D|---------------------10-9-7-10-------------------------------------|
A|-------------------------------10-9-7-10---------------------------|
E|-------------------------------------------------------------------|

e|-------------20====---------------------------------------------|
B|-18b19-19====------12-10--------10h12p10------12-10----12-10----|
G|-------------------------11--11----------11p9-------11-------11-|
D|----------------------------------------------------------------|
A|----------------------------------------------------------------|
E|----------------------------------------------------------------|

e|-----------------------------------------------------------------|
B|-12/17-15-12--15-12====14h15p14----------------------------------|
G|--------------------------------16p14h16-------------------------|
D|-----------------------------------------16-16p14h16-------------|
A|-----------------------------------------------------16-16p14h16-|
E|-----------------------------------------------------------------|

e|-------------------------------------------|
B|-------------------------15p14p12-17-17====|
G|----14-16====12b15-12b15-------------------|
D|-16----------------------------------------|
A|-------------------------------------------|
E|-------------------------------------------|

e|-------------------------------------------------------------------|
B|------------------------15/17-15p14p12-17====----------------------|
G|-----11--16-14p12----16----------------------14-16-16--14----16====|
D|-9-9--------------14--------------------------------------16-------|
A|-------------------------------------------------------------------|
E|-------------------------------------------------------------------|

e|-------------------------------------------------------------19====|
B|-------------------------------------------------------------------|
G|-15b16====16p15p14-------------------------------------------------|
D|-------------------16p15p14----------------14====14-14-14====------|
A|----------------------------16p15p14-17-14-------------------------|
E|-------------------------------------------------------------------|

       (Hold seventh fret with picking hand) (pattern happens a total of 12x)
e|--14-10-7-14-10-7-14-10-7-14-10-7-14-10-7-14-10-7-|       -12b14r12-10-------12b14-12b14-12-10---|
B|--------------------------------------------------|       -------------8-----------------------8-|
G|--------------------------------------------------| (x2)  ---------------------------------------|
D|--------------------------------------------------|       ---------------------------------------|
A|--------------------------------------------------|       ---------------------------------------|
E|--------------------------------------------------|       ---------------------------------------|

e|-12b14-12-10-12----------19====19-21-19----------24====24====\|
B|---------------12-12===-----------------21-20-19--------------|
G|--------------------------------------------------------------|
D|--------------------------------------------------------------|
A|--------------------------------------------------------------|
E|--------------------------------------------------------------|
end solo

then guitar two will continue to play the chorus riff and the lyrics
will kick in and guitar one will play the outro solo.

guitar solo three
e|-------17===16===19===17===16===19===17===16===19===17===16===19===|
B|-------------------------------------------------------------------|
G|-------------------------------------------------------------------|
D|-------------------------------------------------------------------|
A|-------------------------------------------------------------------|
E|-------------------------------------------------------------------|

e|-17===16===19===17===16===19===17===16===19===17===16===19===|
B|-------------------------------------------------------------|
G|-------------------------------------------------------------|
D|-------------------------------------------------------------|
A|-------------------------------------------------------------|
E|-------------------------------------------------------------|

e|-17h19p17h19-19--------------------------------------------------|
B|----------------17h19p17h19-19-----------------------------------|
G|-------------------------------15h17p15-14-12--18b19-19p18p16p14-|
D|-----------------------------------------------------------------|
A|-----------------------------------------------------------------|
E|-----------------------------------------------------------------|

e|------------------------------------------------14-------14-------|
B|-15h17p15----15----15-12-12-12-15-15-12-12---12----12-12----12-12-|
G|----------16----16------------------------------------------------|
D|------------------------------------------------------------------|
A|------------------------------------------------------------------|
E|------------------------------------------------------------------|

e|-14h15p14----------------19-17-19--12-17h19p17h19-13-12-|
B|----------12-12-12-14b15--------------------------------|
G|--------------------------------------------------------|
D|--------------------------------------------------------|
A|--------------------------------------------------------|
E|--------------------------------------------------------|

e|-21p20h21p20h21p20h21---24---23---21---24--23-21-|
B|-------------------------------------------------|
G|-------------------------------------------------|
D|-------------------------------------------------|
A|-------------------------------------------------|
E|-------------------------------------------------|

e|-17h19h21--------------19p18-------19p18-------12-14-12-14-|
B|----------12p10----10--------19p17-------19p17-------------|
G|----------------11-----------------------------------------|
D|-----------------------------------------------------------|
A|-----------------------------------------------------------|
E|-----------------------------------------------------------|

e|-14-16p14p12--------------------------|
B|-------------15p14p12-10--12b-12b-12b-|
G|--------------------------------------|
D|--------------------------------------|
A|--------------------------------------|
E|--------------------------------------|
end solo

small ending (played by guitar one (guitar two fades out))
e|----------3/15\|
B|---------------|
G|---------------|
D|---------------|
A|-2-4-5-6-7-8-9-|
E|---------------|

                                        Baby, Please Don't Go

   Intro
e| -------------------|
B| -------------------|
G| -------------------|
D| -------------------|
A| -------------------|
E| --0-0-0-0-0-0-0-0--|

   Angus
e| ------------------------|
B| ---------15-------------|
G| ---14b16----16r14-12----|
D| ---------------------14-|x4
A| ------------------------|
E| ------------------------|

   Malcolm
e| ---------------------|
B| ---------------------|
G| ---------------------|
D| ---------------------|x4
A| -----5---------------|
E| --/7---7-3-0---------|

   Angus
   Riff A1
e| -------------15------------------15---------------|
B| --17b--12-15----15-12------12-15----15-12-17b-12--|
G| ----------------------15b-------------------------|
D| --------------------------------------------------|
A| --------------------------------------------------|
E| --------------------------------------------------|

e| ----------------------------------------------------|
B| ------15--------------15----------------------------|
G| -14b16--r14-12----14b16---r14-12--------------------|
D| ---------------14----------------14-----------------|
A| ------------------------------------14-12-----------|
E| ------------------------------------------14-12-----|

   Malcolm
   Riff A2
e| ----------3------------3--------------------------|
B| --5b--0-3---3-0----0-3---3-0-3b-0---3----------3--|
G| ----------------3b----------------/2--3-1---/2----|
D| ------------------------------------------3-------|
A| --------------------------------------------------|
E| --------------------------------------------------|

e| -----------------|
B| -----------------|
G| --3-1------------|
D| ------3----------|
A| --------2-0------|
E| ------------3-0--|

 Verse

   Angus
e| -----------------------|
B| -----------------------|
G| -----------------------|
D| -----------------------|
A| -----------------------|
E| --12\-0-12\-0-0-12\-0--|

   Malcolm
e| --------------------|
B| --------------------|
G| --------------------|
D| --------------------|
A| --------------------|
E| --3/-0-3/-0-0-3/-0--|

   Both      Let Ring
e| ---------------12*-|
B| ---------------12*-|
G| --2------------12*-|
D| --2------------12*-|
A| --0---2-0------12*-|
E| ----------3-0--12*-|

e| ------------------------------------------------------|
B| ------------------------------------------------------|
G| ------------------------------------------------------|
D| --2--1-2-3--2-3-4--3-4-5--4-5-6--5-6-7--6-7-8--7-8-9--|
A| --2--1-2-3--2-3-4--3-4-5--4-5-6--5-6-7--6-7-8--7-8-9--|
E| --0--0-0-1--0-1-2--1-2-3--2-3-4--3-4-5--4-5-6--5-6-7--|

e| -----------------------|
B| -----------------------|
G| -----------------------|
D| --6-7-8-9-10-11-12-13--|
A| --6-7-8-9-10-11-12-13--|
E| --4-5-6-7-8--9--10-11--|

 Riff A1 and A2

 Drums and bass for a couple of seconds

   Malcolm
   Play Through Solo
e| ---------------|
B| ---------------|
G| --9-9-9-9-7h9--|
D| ---------------|
A| --7-7-7-7-7----|
E| ---------------|

   Angus Solo
  (Don't Use Picking Hand)
   Pull-Off
e| --7-4-0-7-4-0-7-4-0-7-4-0-7-4-0-7-4-0-7-4-0-7-4-0--|
B| ---------------------------------------------------|
G| ---------------------------------------------------|
D| ---------------------------------------------------|
A| ---------------------------------------------------|
E| ---------------------------------------------------|

e| ---------------------------------------------------|
B| --7-4-0-7-4-0-7-4-0-7-4-0-7-4-0-7-4-0-7-4-0-7-4-0--|
G| ---------------------------------------------------|
D| ---------------------------------------------------|
A| ---------------------------------------------------|
E| ---------------------------------------------------|

  (yes, there is a rest in this)
e| ---------------------------------------------------|
B| ---------------------------------------------------|
G| --7-4-0-7-4-0-7-4-0-7-4-0--------------------------|
D| --------------------------------7-4-0-7-4-0-7-4-0--|
A| ---------------------------------------------------|
E| ---------------------------------------------------|

e| -----------------------------------------------------|
B| -----------------------------------------------------|
G| -----------------------------------------------------|
D| -----------------------------------------------------|
A| --7-4-0-7-4-0-7-4-0-7-4-0----------------------------|
E| --------------------------7-4-0-7-4-0-7-4-0-7-4-0-0--|

e| ------------------------------------------------------|
B| --10b-10b-10b\-----8-----10b-10-8----------8----------|
G| ---------------9-9---9\-----------9----7-9------7-9-9-|
D| ------------------------------------------------------|
A| ------------------------------------------------------|
E| ------------------------------------------------------|

 Play the pull-off part of the solo again (but without the quarter rest)

            
            
Suggest correction
Creating personal tab
Creating personal tab
You can edit any tab online and save it as your Personal.

You can edit, replace or remove any tab part or add personal notes – all changes will be seen only by you.

Personal tabs can be accessed anytime from any device, even offline.
Learn more »
comments
print report bad tab
18 comments total. Showing first comments.
+1 reply
ibanez87 311 Aug 03, 2005 08:00 PM

dude jailbreak is sooo wrong.

0 reply
bonny500 10 Aug 10, 2005 08:00 PM

yah it is wrong

0 reply
mezmerize 10 Aug 19, 2005 08:00 PM

yea

guest
You may want to rate the tab now too:
select rating
Wanna post a correction for this tab? Suggest correction