Oops, an error
Loading. Please wait.

Back In Black Tab

version 1
by AC/DC
339,234 views 534 this week
19 commentsread comments
1 2 3 4 5
x 52
add to favorites
launch autoscroll
font size
0
reset
how to read this tab
guitar tuner
×
Best way to learn
"Back In Black"
Autoscroll
slow
fast
+/-
esc
set tempo
stop
"Back In Black"
by AC/DC
from the 1980 album BACK IN BLACK

[Opening riff] 
(played behind verses as well):
E|---------------------|-------3-0------------|
B|---------------------|-----------3-0--------|
G|------7-7-7----------|---------------2^F^p0-|
D|--2---7-7-7--7-7-7---|-X-X-X----------------|
A|--2---5-5-5--7-7-7---|-X-X-X----------------|
E|--0----------5-5-5---|-X-X-X----------------|

E|---------------------|----------------------|
B|---------------------|----------------------|
G|------7-7-7----------|----------------------|
D|--2---7-7-7--7-7-7---|----------------------|
A|--2---5-5-5--7-7-7---|--2---2---2---2-------|
E|--0----------5-5-5---|----4---5---6---7\----|

[The Chorus]
E|----------------|----------------|--3-----------|----------------|--3--|-------|
B|----------------|----------------|--3--3--------|----------------|--3--|-3-3-3-|
G|--2-----4--2--4-|--2-----4--2--4-|--0--2--2---2-|--2-----4--2--4-|--0--|-2-2-2-|
D|--2--2--4--2--4-|--2--2--4--2--4-|-----0--2---2-|--2--2--4--2--4-|--0--|-0-0-0-|
A|--0--2--2--0--2-|--0--2--2--0--2-|--------0---0-|--0--2--2--0--2-|-----|-------|
E|-----0----------|-----0----------|----------3---|-----0----------|--3--|-------|

[That later riff]
(play each part a couple of times - listen to the tape!)

First half (4 times)
E|--------------------------------|
B|--------------------------------|
G|--------------------------------|
D|--------------------------------|
A|-----5-4-2--4------2---2---2----|
E|--0------------4~----5---6---7\-|

Second half (2 times)
E|--------------------------------|
B|--------------------------------|
G|--------------------------------|
D|-----5-4-2--4------2---2---2----|
A|--0------------4~----5---6---7\-|
E|--------------------------------|

************************************

| x   Dead note
| p   Pull-off
| ^   Bend
| F   Artificial Harmonic
| \   Slide down
| ~   Vibrato

************************************
Suggest correction
comments
print report bad tab
19 comments total. Showing first comments.
0 reply
PILLSorBOMBS 0 Mar 28, 2002 07:00 PM

pretty gud mate. well done- can't see any problems

0 reply
psg2 0 Apr 05, 2002 07:00 PM

Ac Dc rocks but this tab sucks

0 reply
metallicarule7 50 Apr 20, 2002 08:00 PM

wrong

guest
You may want to rate the tab now too:
select rating
Wanna post a correction for this tab? Suggest correction