Oops, an error
Loading. Please wait.

Back In Black Tab

version 2
3,018,289 views 3,771 this week
86 commentsread comments
1 2 3 4 5
worth learning
x 165
add to favorites
launch autoscroll
font size
0
reset
how to read this tab
guitar tuner
Tab Pro tools
  • play this tab
  • loop segment
  • change instrument
  • show fretboard
  • metronome
×
Best way to learn
"Back In Black"
Autoscroll
slow
fast
+/-
esc
set tempo
stop
[Intro]

|-----------------|----------------|
|-----------------|----------------|
|-----------------|----------------|
|-x---x---x---x---|-x---x----------|
|-x---x---x---x---|-x---x----------|
|-x---x---x---x---|-x---x----------|


|-----------------------|----------3p0-------------|-----------------------|--------------------| 
|-----------------------|--------------3p0---------|-----------------------|--------------------|
|---------7-7-7---------|------------------2b3r2p0-|---------7-7-7---------|--------------------|  x2
|-2-------7-7-7-----7-7-|-7------------------------|-2-------7-7-7-----7-7-|-7------------------|
|-2-------5-5-5-----7-7-|-7------------------------|-2-------5-5-5-----7-7-|-7---2---2---2---2--|
|-0-----------------5-5-|-5------------------------|-0-----------------5-5-|-5----4---5---6---7\|

[Verse 1]
 
|-----------------------|----------3p0-------------|-----------------------|--------------------| 
|-----------------------|--------------3p0---------|-----------------------|--------------------|
|---------7-7-7---------|------------------2b3r2p0-|---------7-7-7---------|--------------------|  x2
|-2-------7-7-7-----7-7-|-7------------------------|-2-------7-7-7-----7-7-|-7------------------|
|-2-------5-5-5-----7-7-|-7------------------------|-2-------5-5-5-----7-7-|-7---2---2---2---2--|
|-0-----------------5-5-|-5------------------------|-0-----------------5-5-|-5----4---5---6---7\|


[Chorus]
     
|------------------|-----------------|---3-------------|---3-------------|
|------------------|-----------------|---3--3----------|---3--3----------|
|----2-----4--2--4-|---2-----4--2--4-|---0--2--2-----2-|---0--2--2-----2-|
|----2--2--4--2--4-|---2--2--4--2--4-|---0--0--2-----2-|---0--0--2-----2-|
|----0--2--2--0--2-|---0--2--2--0--2-|---------0-----0-|---------0-----0-|
|-------0----------|------0----------|---3--------3----|---3--------3----|


|------------------|-----------------|-3----3----3-----|-----------------|
|------------------|-----------------|-3----3----3-----|-3----3----3-----|
|----2-----4--2--4-|---2-----4--2--4-|-0----0----0-----|-2----2----2-----|
|----2--2--4--2--4-|---2--2--4--2--4-|-0----0----0-----|-0----0----0-----|
|----0--2--2--0--2-|---0--2--2--0--2-|-----------------|-----------------|
|-------0----------|------0----------|-3----3----3-----|-----------------|

[Verse 2]

|-----------------------|----------3p0-------------|-----------------------|--------------------| 
|-----------------------|--------------3p0---------|-----------------------|--------------------|
|---------7-7-7---------|------------------2b3r2p0-|---------7-7-7---------|--------------------|  x2
|-2-------7-7-7-----7-7-|-7------------------------|-2-------7-7-7-----7-7-|-7------------------|
|-2-------5-5-5-----7-7-|-7------------------------|-2-------5-5-5-----7-7-|-7---2---2---2---2--|
|-0-----------------5-5-|-5------------------------|-0-----------------5-5-|-5----4---5---6---7\|


[Chorus]
  
|------------------|-----------------|---3-------------|---3-------------|
|------------------|-----------------|---3--3----------|---3--3----------|
|----2-----4--2--4-|---2-----4--2--4-|---0--2--2-----2-|---0--2--2-----2-|
|----2--2--4--2--4-|---2--2--4--2--4-|---0--0--2-----2-|---0--0--2-----2-|
|----0--2--2--0--2-|---0--2--2--0--2-|---------0-----0-|---------0-----0-|
|-------0----------|------0----------|---3--------3----|---3--------3----|


|------------------|-----------------|-3----3----3-----|-----------------|
|------------------|-----------------|-3----3----3-----|-3----3----3-----|
|----2-----4--2--4-|---2-----4--2--4-|-0----0----0-----|-2----2----2-----|
|----2--2--4--2--4-|---2--2--4--2--4-|-0----0----0-----|-0----0----0-----|
|----0--2--2--0--2-|---0--2--2--0--2-|-----------------|-----------------|
|-------0----------|------0----------|-3----3----3-----|-----------------|

[Solo]

Gtr I
                             P.M..................|
|-----------------------|-------------------------|-----------------------|--------------------|
|-----------------------|-------------------------|-----------------------|--------------------|
|---------7-7-7---------|-------------------------|---------7-7-7---------|----------2-------2-|
|-2-------7-7-7-----7-7-|-7-----------------------|-2-------7-7-7-----7-7-|-7--------2---2---2-|
|-2-------5-5-5-----4-4-|-4---2-2-2---2-2-2---2-2-|-2-------5-5-5-----4-4-|-4----2---0---2---0-|
|-0---------------------|-----0-0-0---0-0-0---0-0-|-0---------------------|------0-------0-----|
                                                                                P.M.        
GtrII
                 
|-----------------------|-------------------------|-----------------------|--------------------|
|-----------------------|-------------------------|-----------------------|--------------------|
|-----------------------|-------------0-3p2p0-2---|-----------------------|---------7--7--7--7-|
|-----------------------|-----------2-----------2-|-----------------------|--------------------|
|----7~-------5--5~-----|-4--4~-------------------|----7~-------5--5~-----|-4--4~--------------|
|-0---------------------|-------------------------|-0---------------------|--------------------|

Gtr I
                                  P.M.................|                                  P.M.
|-----------------------|-----------------------------|-----------------------|------------------------|
|-----------------------|-----------------------------|-----------------------|------------------------|
|---------7-7-7---------|-----------------------------|---------7-7-7---------|--------------2-------2-|
|-2-------7-7-7-----7-7-|-7---------------------------|-2-------7-7-7-----7-7-|-7------------2---2---2-|
|-2-------5-5-5-----4-4-|-4-------2-2-2---2-2-2---2-2-|-2-------5-5-5-----4-4-|-4--------2---0---2---0-|
|-0---------------------|---------0-0-0---0-0-0---0-0-|-0---------------------|----------0-------0-----|

GtrII

|-----------------------|-----------------------------|------10---10--10------|-----------------10-----|
|-------------8---------|--8-10h11p10p8-10-8-------8-8|-10b12--10b12--r10p8-10|-8----8-10--10b12--10b12|
|-7b9~----7b9---7b9--/9~|-9-----------------9-7-9~--9-|-----------------------|--9-9--9----------------|
|-----------------------|-----------------------------|-----------------------|------------------------|
|-----------------------|-----------------------------|-----------------------|------------------------|
|-----------------------|-----------------------------|-----------------------|------------------------|


Gtr I
                                 P.M..................|                              P.M. 
|---------------------------|-------------------------|-----------------------|--------------------|
|---------------------------|-------------------------|-----------------------|--------------------|
|-------------7-7-7---------|-------------------------|---------7-7-7---------|----------2-------2-|
|-2-----------7-7-7-----7-7-|-7-----------------------|-2-------7-7-7-----7-7-|-7--------2---2---2-|
|-2-----------5-5-5-----4-4-|-4---2-2-2---2-2-2---2-2-|-2-------5-5-5-----4-4-|-4----2---0---2---0-|
|-0-------------------------|-----0-0-0---0-0-0---0-0-|-0---------------------|------0-------0-----|
          
GtrII

|---12-12-----------12------|-------------------------|-----------------------|--------------------|
|-12-----15b17-(17~)--15p12-|------------------15-----|-----------------------|--------------------|
|---------------------------|-14b16r14p12-14b16-14b16~|-----------------------|--------------------|
|---------------------------|-------------------------|-----------------------|--------------------|
|---------------------------|-------------------------|-----------------------|--------------------|
|---------------------------|-------------------------|-----------------------|--------------------|

Gtr I
                              P.M..................|                             P.M.
|-----------------------|-------------------------|-----------------------|--------------------|
|-----------------------|-------------------------|-----------------------|--------------------|
|---------7-7-7---------|-------------------------|---------7-7-7---------|----------2-------2-|
|-2-------7-7-7-----7-7-|-7-----------------------|-2-------7-7-7-----7-7-|-7--------2---2---2-|
|-2-------5-5-5-----4-4-|-4---2-2-2---2-2-2---2-2-|-2-------5-5-5-----4-4-|-4----2---0---2---0-|
|-0---------------------|-----0-0-0---0-0-0---0-0-|-0---------------------|------0-------0-----|


[Chorus]
    
|------------------|-----------------|---3-------------|---3-------------|
|------------------|-----------------|---3--3----------|---3--3----------|
|----2-----4--2--4-|---2-----4--2--4-|---0--2--2-----2-|---0--2--2-----2-|
|----2--2--4--2--4-|---2--2--4--2--4-|---0--0--2-----2-|---0--0--2-----2-|
|----0--2--2--0--2-|---0--2--2--0--2-|---------0-----0-|---------0-----0-|
|-------0----------|------0----------|---3--------3----|---3--------3----|

    
|------------------|-----------------|-3----3----3-----|-----------------|
|------------------|-----------------|-3----3----3-----|-3----3----3-----|
|----2-----4--2--4-|---2-----4--2--4-|-0----0----0-----|-2----2----2-----|
|----2--2--4--2--4-|---2--2--4--2--4-|-0----0----0-----|-0----0----0-----|
|----0--2--2--0--2-|---0--2--2--0--2-|-----------------|-----------------|
|-------0----------|------0----------|-3----3----3-----|-----------------|



[Break]

|----------------------------|    |----------------------------|    |----------------------------|
|----------------------------|    |----------------------------|    |----------------------------|
|----------------------------| x4 |----------------------------| x2 |----------------------------| x2
|----------------------------|    |---5-4-2-4------2---2---2---|    |----------------------------|
|---5-4-2-4------2---2---2---|    |-0---------3~----5---6---7\-|    |---5-4-2-4------2---2---2---|
|-0---------3~----5---6---7\-|    |----------------------------|    |-0---------3~----5---6---7\-| 


[Chorus]

|------------------|-----------------|---3-------------|---3-------------|
|------------------|-----------------|---3--3----------|---3--3----------|
|----2-----4--2--4-|---2-----4--2--4-|---0--2--2-----2-|---0--2--2-----2-|
|----2--2--4--2--4-|---2--2--4--2--4-|---0--0--2-----2-|---0--0--2-----2-|
|----0--2--2--0--2-|---0--2--2--0--2-|---------0-----0-|---------0-----0-|
|-------0----------|------0----------|---3--------3----|---3--------3----|


|------------------|-----------------|-3----3----3-----|-----------------|
|------------------|-----------------|-3----3----3-----|-3----3----3-----|
|----2-----4--2--4-|---2-----4--2--4-|-0----0----0-----|-2----2----2-----|
|----2--2--4--2--4-|---2--2--4--2--4-|-0----0----0-----|-0----0----0-----|
|----0--2--2--0--2-|---0--2--2--0--2-|-----------------|-----------------|
|-------0----------|------0----------|-3----3----3-----|-----------------|

[Outro]

Gtr I
                              P.M.................|                              P.M.
|-----------------------|-------------------------|-----------------------|--------------------|
|-----------------------|-------------------------|-----------------------|--------------------|
|---------7-7-7---------|-------------------------|---------7-7-7---------|----------2-------2-|
|-2-------7-7-7-----7-7-|-7-----------------------|-2-------7-7-7-----7-7-|-7--------2---2---2-|
|-2-------5-5-5-----4-4-|-4---2-2-2---2-2-2---2-2-|-2-------5-5-5-----4-4-|-4----2---0---2---0-|
|-0---------------------|-----0-0-0---0-0-0---0-0-|-0---------------------|------0-------0-----|

***********************************
| x   deadnote
| /   slide up
| \   slide down
| b   bend
| ~   vibrato
| r   release
***********************************

comments
print report bad tab
86 comments total. Showing first comments. show 1 bad comment
+5 reply
GibsonPlayr17 wrote on April 27 2002, 12:00 am

nahhh

+20 reply
Helios wrote on December 22 2002, 12:00 am

instead of 2 2 2 2
4 5 6 7
do this it sounds the same and easier to play
7 4 7 5 7 6 7 7

I want to post or [tab]
guest
You may want to rate the tab now too:
select rating
Please do not post tabs as comments. Select "correction" instead!