Oops, an error
Loading. Please wait.

Back In Black Bass Tab

version 3
9,118 views 1 this week
12 commentsread comments
1 2 3 4 5
worth learning
x 18
add to favorites
launch autoscroll
font size
0
reset
guitar tuner
Tab Pro tools
  • play this tab
  • loop segment
  • change instrument
  • show fretboard
  • metronome
×
Best way to learn
"Back In Black"
Autoscroll
slow
fast
+/-
esc
set tempo
stop
Contributor
This is a tab my friend's brother wrote up for me. I just decided to type it up
and stick it on the internet for other people's use. First tab blah blah blah...
Might be a couple mistakes. It can be updated so thats not a problem, well I think so anyway...

Verse

G--------------------------------------------------
D--------------------------------------------------
A-----555-444--------555-444-----------------------
E--0--------------0--------------74757677----------


Chorus

G--------------------------------------------------
D--------------------------------------------------
A--22222202-------22222202-------------------------
E--------------------------------------------------

G--------------------------------------------------
D--------------------------------------------------
A------------------------------------2--0--2-------
E--55555535-------55555535-----5--0----------------

G--------------------------------------------------
D--------------------------------------------------
A--------------555---------------------------------
E--33333333----------------------------------------


Solo


G--------------------------------------------------
D--------------------------------------------------
A-----555-444--------------------------------------
E--0----------000-000-000--------------------------

G--------------------------------------------------
D--------------------------------------------------
A-----555-444--------------------------------------
E--0----------000-000-000--0--5--3--5--------------


Bridge

G--------------------------------------------------
D--------------------------------------------------
A----------------03456--03456----------------------
E--03456--03456----------------03456---------------
  /           /<---play 2x

You can listen to get the right path, but it isnt too hard.
comments
print report bad tab
12 comments total. Showing first comments. show 1 bad comment
0 reply
Stealth Drow wrote on December 31 2003, 12:00 am

G--------------------------------------------------
D--------------------------------------------------
A-----555-444--------------------------------------
E--0----------000-000-000--0--5--3--5--------------
/ /

At this part in the chorus you do not play the dashed off portion.

0 reply
Stealth Drow wrote on December 31 2003, 12:00 am

Ok strange that didnt work. Ignore that comment. You dont play that set of 3 0's.

I want to post or [tab]
guest
You may want to rate the tab now too:
select rating
Please do not post tabs as comments. Select "correction" instead!