Oops, an error
Loading. Please wait.

Back In Black Bass Tab

version 6
10,433 views 3 this week
2 commentsread comments
1 2 3 4 5
accurate
x 3
add to favorites
launch autoscroll
font size
0
reset
guitar tuner
Tab Pro tools
  • play this tab
  • loop segment
  • change instrument
  • show fretboard
  • metronome
×
Best way to learn
"Back In Black"
Autoscroll
slow
fast
+/-
esc
set tempo
stop
AC/DC-Back in Black (Album)
Recorded: April-May 1980
Released: July 25, 1980

================================================
TAB INFORMATION, CONTACT DETAILS
================================================

Transcribed by: Alex M. (playinbass1432)
Email: playinbass1432@hotmail.com
Site: www.ultimate-guitar.com
Date of transcription: May 2nd-June 22nd, 2008

================================================
PLEASE RATE AND COMMENT!!!
================================================

TRACK LISTING:

1. Hells Bells (5:12)
2. Shoot to Thrill (5:17)
3. What Do You Do For Money Honey (3:35)
4. Givin the Dog a Bone (3:31)
5. Let Me Put My Love Into You (4:15)
6. Back in Black (4:15)
7. You Shook Me All Night Long (3:30)
8. Have a Drink on Me (3:58)
9. Shake a Leg (4:05)
10. Rock 'n' Roll Ain't Noise Pollution (4:26)

All songs wirtten by Young, Young Johnson
All songs in standard tuning, except where noted

================================================
1. HELLS BELLS
================================================

Intro: (Start counting at 0:46)

             C B A                                   A
G|-----------------|-----------------|-----------------|-----------------|
D|-----------------|-----------------|-----------------|-----------------|
A|-----------3-2---|-----------------|-----------------|-----------------|
E|---------------5-|-----------------|---------------5-|-----------------|

             C B A
G|-----------------|-----------------|-----------------|-----------------|
D|-----------------|-----------------|-----------------|-----------------|
A|-----------3-2---|-----------------|-----------------|-----------------|
E|---------------5-|-5-5-5-5-5-5-5-5-|-5-5-5-5-5-5-5-5-|-5-5-5-5-5-5-5-5-|

   A         C B A                                                     G
G|-----------------|-----------------|-----------------|-----------------|
D|-----------------|-----------------|-----------------|------------57---|
A|-----------3-2---|-----------------|-----------------|----------57-----|
E|-5-5-5-5-5-----5-|-5-5-5-5-5-5-5-5-|-5-5-5-5-5-5-5-5-|-5-5-5-5-5-----3-|

     G   D   C B A
G|-----------------|
D|-----------------|
A|-------5---3-2---|
E|---3-3---------5-|

Pre Verse 1:

   A             D           C   B     A             D           C   B
G|-----------------|-----------------|-----------------|-----------------|
D|-----------------|-----------------|-----------------|-----------------|
A|---------------5-|-5-5-5-5-3---2---|---------------5-|-5-5-5-5-3---2---|
E|-5-5-5-5-5-5-5---|-----------------|-5-5-5-5-5-5-5---|-----------------|

Verse 1:

   A             D           C   B     A             D           C   B
G|-----------------|-----------------|-----------------|-----------------|
D|-----------------|-----------------|-----------------|-----------------|
A|---------------5-|-5-5-5-5-3-3-2-2-|---------------5-|-5-5-5-5-3-3-2-2-|
E|-5-5-5-5-5-5-5---|-----------------|-5-5-5-5-5-5-5---|-----------------|

   A             D           C   B     A             D           C   B
G|-----------------|-----------------|-----------------|-----------------|
D|-----------------|-----------------|-----------------|-----------------|
A|---------------5-|-5-5-5-5-3-3-2-2-|---------------5-|-5-5-5-5-3---2---|
E|-5-5-5-5-5-5-5---|-----------------|-5-5-5-5-5-5-5---|-----------------|

Pre Chorus 1:

   D                         C   G     D                         C   G
G|-----------------|-----------------|-----------------|-----------------|
D|-----------------|-----------------|-----------------|-----------------|
A|-5-5-5-5-5-5-5-5-|-5-5-5-5-3-------|-5-5-5-5-5-5-5-5-|-5-5-5-5-3-------|
E|-----------------|-------------3---|-----------------|-------------3---|

   E                         D   A     E
G|-----------------|-----------------|-----------------|-----------------|
D|-----------------|-----------------|-----------------|-----------------|
A|-7-7-7-7-7-7-7-7-|-7-7-7-7-5-------|-----------------|-----------------|
E|-----------------|-------------5---|-0-0-0-0-0-0-0-0-|-0-0-0-0-2-2-3b--|

Chorus 1:

   A                                                               C B A
G|-----------------|-----------------|-----------------|-----------------|
D|-----------------|-----------------|-----------------|-----------------|
A|-----------------|-----------------|-----------------|-----------3-2---|
E|-5-5-5-5-5-5-5-5-|-5-5-5-5-5-5-5-5-|-5-5-5-5-5-5-5-5-|-5-5-5-5-5-----5-|

   A                                                 G     G   D   C B A
G|-----------------|-----------------|-----------------|-----------------|
D|-----------------|-----------------|----------/7-7---|-----------------|
A|-----------------|-----------------|-----------------|-------5\--3-2---|
E|-5-5-5-5-5-5-5-5-|-5-5-5-5-5-5-5-5-|-5-5-5-5-------3-|---3-3---------5-|

Pre Verse 2:

   A             D           C   B     A             D           C   B
G|-----------------|-----------------|-----------------|-----------------|
D|-----------------|-----------------|-----------------|-----------------|
A|---------------5-|-5-5-5-5-3---2---|---------------5-|-5-5-5-5-3---2---|
E|-5-5-5-5-5-5-5---|-----------------|-5-5-5-5-5-5-5---|-----------------|

Verse 2:

   A                 D       C   B     A             D           C   B
G|-----------------|-----------------|-----------------|-----------------|
D|-----------------|-----------------|-----------------|-----------------|
A|---------------3/|-5-5-5-5-3-3-2-2-|---------------3/|-5-5-5-5-3-3-2-2-|
E|-5-5-5-5-5-5-5---|-----------------|-5-5-5-5-5-5-5---|-----------------|

   A             D           C   B     A             D           C   B
G|-----------------|-----------------|-----------------|-----------------|
D|-----------------|-----------------|-----------------|-----------------|
A|---------------5-|-5-5-5-5-3-3-2-2-|---------------5-|-5-5-5-5-3---2---|
E|-5-5-5-5-5-5-5---|-----------------|-5-5-5-5-5-5-5---|-----------------|

Pre Chorus 2:

   D                         C   G     D                         C   G
G|-----------------|-----------------|-----------------|-----------------|
D|-----------------|-----------------|-----------------|-----------------|
A|-5-5-5-5-5-5-5-5-|-5-5-5-5-3-------|/5-5-5-5-5-5-5-5-|-5-5-5\--3-------|
E|-----------------|-------------3---|-----------------|-------------3---|

   E                         D   A     E                         4
G|-----------------|-----------------|-----------------|-----------------|
D|-----------------|-----------------|-----------------|-----------------|
A|-7-7-7-7-7-7-7-7-|-7-7-7-7-5-------|-----------------|-----------------|
E|-----------------|-------------5---|-0-0-0-0-0-0-0-0-|-0-0-0-0-2-2-3-3-|

Chorus 2:

   A                                                               C B A
G|-----------------|-----------------|-----------------|-----------------|
D|-----------------|-----------------|-----------------|-----------------|
A|-----------------|-----------------|-----------------|-----------3-2---|
E|-5-5-5-5-5-5-5-5-|-5-5-5-5-5-5-5-5-|-5-5-5-5-5-5-5-5-|-5-5-5-5-5-----5-|

   A                                                 G     G   D   C B A
G|-----------------|-----------------|-----------------|-----------------|
D|-----------------|-----------------|-----------------|-----------------|
A|-----------------|-----------------|-----------------|-------5---3-2---|
E|-5-5-5-5-5-5-5-5-|-5-5-5-5-5-5-5-5-|-5-5-5-5-5-5-5-3-|---3-3---------5-|

Bridge:

   A
G|-----------------|-----------------|-----------------|-----------------|
D|-----------------|-----------------|-----------------|-----------------|
A|-----------------|-----------------|-----------------|-----------------|
E|-5-5-5-5-5-5-5-5-|-5-5-5-5-5-5-5-5-|-5-5-5-5-5-5-5-5-|-5-5-5-5-5-5-5-5-|

Guitar Solo:

   A G A         C         D           A G A         C         D
G|-----------------|-----------------|-----------------|-----------------|
D|-----------------|-----------------|-----------------|-----------------|
A|---------------3-|-------5---------|---------------3-|-------5---------|
E|-5-3-5-----------|-----------------|-5-3-5-----------|-----------------|

   A G A         C         D           A G A         C         D
G|-----------------|-----------------|-----------------|-----------------|
D|-----------------|-----------------|-----------------|-----------------|
A|---------------3-|-------5---5-5---|---------------3-|-------5-5-5-5-5-|
E|-5-3-5-----------|-----------------|-5-3-5-----------|-----------------|

   D   C D     C D           C   G     D   C D     C D           C   G
G|-----------------|-----------------|-----------------|-----------------|
D|-----------------|-----------------|-----------------|-----------------|
A|-5-5-3-5-5-5-3-5-|-5-5-5-5-3-3-----|-5-5-3-5-5-5-3-5-|-5-5-5-5-3-3-----|
E|-----------------|-------------3---|-----------------|-------------3---|

   E   D E     D E           D   A     E
G|-----------------|-----------------|-----------------|-----------------|
D|-----------------|-----------------|-----------------|-----------------|
A|-7-7-5-7-7-7-5-7-|-7-7-7-7-5-------|-----------------|-----------------|
E|-----------------|-------------5---|-0-0-0-0-0-0-0-0-|-0-0-0-1-2-2-3-3-|

Chorus 3:

   A                                                               C B A
G|-----------------|-----------------|-----------------|-----------------|
D|-----------------|-----------------|-----------------|-----------------|
A|-----------------|-----------------|-----------------|-----------3-2---|
E|-5-5-5-5-5-5-5-5-|-5-5-5-5-5-5-5-5-|-5-5-5-5-5-5-5-5-|-5-5-5-5-5-----5-|

   A                                                 C     C   D   C B A
G|-----------------|-----------------|-----------------|-----------------|
D|-----------------|-----------------|-----------------|-----------------|
A|-----------------|-----------------|---------------3-|---3-3-5---3-2---|
E|-5-5-5-5-5-5-5-5-|-5-5-5-5-5-5-5-5-|-5-5-5-5-5-5-5---|---------------5-|

   A                                                 C     C   D   C B A
G|-----------------|-----------------|-----------------|-----------------|
D|-----------------|----------------7|-----------------|-----------------|
A|-----------------|-----------7/10--|---------------3-|---3-3-5---3-2---|
E|-5-5-5-5-5-5-5-5-|-5-5-5-5-5-------|-5-5-5-5-5-5-5---|---------------5-|

   A                                                 C     C   D   D
G|-----------------|-----------------|-----------------|-----------------|
D|-----------------|-----------------|------------57---|-----------------|
A|-----------------|-----------------|----------57---3-|---3-3-5---5-5-5-|
E|-5-5-5-5-5-5-5-5-|-5-5-5-5-5-5-5-5-|-5-5-5-5-5-------|-----------------|

Outro:

   A G A         C         D           A G A         C         D
G|-----------------|-----------------|-----------------|-----------------|
D|-----------------|-----------------|-----------------|-----------------|
A|---------------3-|-------5---------|---------------3-|-------5---------|
E|-5-3-5-----------|-----------------|-5-3-5-----------|-----------------|


   A G A         C         D           A G A         C         D
G|-----------------|-----------------|-----------------|-----------------|
D|-----------------|-----------------|-----------------|-----------------|
A|---------------3-|-------5---------|---------------3-|-------5---------|
E|-5-3-5-----------|-----------------|-5-3-5-----------|-----------------|

                                       A G A
G|-----------------|-----------------|-----------------|
D|-----------------|-----------------|-----------------|
A|-----------------|-----------------|-----------------|
E|-----------------|-----------------|-5-3-5-----------|


I'm rolling thunder, pouring rain
I'm coming on like a hurricane
My lightning's flashing across the sky
You're only young but you're gonna die
I won't take no prisoners won't spare no lives
Nobody's putting up a fight
I got my bell I'm gonna take you to hell
I'm gonna get ya, satan get ya

Hells bells
Hells bells, you got me ringing
Hells bells, my temperature's high
Hells bells

I'll give you black sensations up and down your spine
If you're into evil, you're a friend of mine
See the white light flashing as I split the night
Cos if good's on the left then I'm sticking to the right
I won't take no prisoners won't spare no lives
Nobody's puttin' up a fight
I got my bell I'm gonna take you to hell
I'm gonna get ya satan get ya

Hells bells
Hells bells, you got me ringing
Hells bells, my temperature's high
Hells bells

Hells bells, satan's coming to you
Hells bells, he's ringing them now
Those hells bells, the temperature's high
Hells bells, across the sky
Hells bells, they're taking you down
Hells bells, they're dragging you down
Hells bells, gonna split the night
Hells bells, there's no way to fight
Hells bells

================================================
2. SHOOT TO THRILL
================================================

Intro: (4 bars after drums enter, fade in)

   A                                                           D  Db A
G|-----------------|-----------------|-----------------|-----------------|
D|-7-7-7-7-7-7-7-7-|-7-7-7-7-7-7-7-7-|-7-7-7-7-7-7-7-7-|-7-7-7-----------|
A|-----------------|-----------------|-----------------|-------5-5-4-----|
E|-----------------|-----------------|-----------------|-------------5-5-|

   A
G|-----------------|-----------------|-----------------|-----------------|
D|-----------------|-----------------|-----------------|-----------------|
A|-----------------|-----------------|-----------------|-----------------|
E|-5-5-5-5-5-5-5-5-|-5-5-5-5-5-5-5-5-|-5-5-5-5-5-5-5-5-|-5-5-5-5-5-5-5-5-|

   A                                                             D Db
G|-----------------|-----------------|-----------------|-----------------|
D|-----------------|-----------------|-----------------|-----------------|
A|-----------------|-----------------|-----------------|---------5-4-----|
E|-5-5-5-5-5-5-5-5-|-5-5-5-5-5-5-5-5-|-5-5-5-5-5-5-5-5-|-5-5-5-5-----5-5-|

Verse 1:

   A
G|-----------------|-----------------|-----------------|-----------------|
D|-----------------|-----------------|-----------------|-----------------|
A|-----------------|-----------------|-----------------|-----------------|
E|-5-5-5-5-5-5-5-5-|-5-5-5-5-5-5-5-5-|-5-5-5-5-5-5-5-5-|-5-5-5-5-5-5-5-5-|

   A
G|-----------------|-----------------|-----------------|-----------------|
D|-----------------|-----------------|-----------------|-----------------|
A|-----------------|-----------------|-----------------|-----------------|
E|-5-5-5-5-5-5-5-5-|-5-5-5-5-5-5-5-5-|-5-5-5-5-5-5-5-5-|-5-5-5-5-5-5-5-7-|

Pre Chorus 1:

    C
G|-----------------|-----------------|-----------------|-----------------|
D|-----------------|-----------------|-----------------|-----------------|
A|-----------------|-----------------|-----------------|-----------------|
E|-8-8-8-8-8-8-8-8-|-8-8-8-8-8-8-8-x-|-8-8-8-8-8-8-8-8-|-8-8-8-8-8-0h3/5-|

   D                                E    G   E G   E G     E G   E
G|-----------------|-----------------|-----------------|-----------------|
D|-----------------|-----------------|---5-5---5-5---5-|-5---5-5---5-75--|
A|-5-5-5-5-5-5-5-5-|-5-5-5-5-5-5-5-7-|-------7-----7---|---7-----7-----7-|
E|-----------------|-----------------|-----------------|-----------------|

Chorus 1:

   A             G                 D
G|-----------------|-----------------|-----------------|-----------------|
D|-----------------|-----------------|-----------------|-----------------|
A|-----------------|---------------5-|-5-5-5-5-5-5-5-5-|-5-5-5-5-5-3h4---|
E|-5-5-5-5-5-5-5-3-|-3-3-3-3-3-3-3---|-----------------|---------------5-|

   A             G                 D                       F#  G     A
G|-----------------|-----------------|-----------------|-----------------|
D|-----------------|-----------------|-----------------|---4---5-x-6-7-7-|
A|-----------------|---------------5-|-5-5-5-5-5-5-5-5-|-5---------------|
E|-5-5-5-5-5-5-5-3-|-3-3-3-2-3-3-2---|-----------------|-----------------|

Pre Verse 2:

   A                         D Db      A                         D Db
G|-----------------|-----------------|-----------------|-----------------|
D|-----------------|-----------------|-----------------|-----------------|
A|-----------------|---------5-4-----|-----------------|---------5-4-----|
E|-5-5-5-5-5-5-5-5-|-5-5-5-5-----5-5-|-5-5-5-5-5-5-5-5-|-5-5-5-5-----5-3/|


Verse 2:

   A
G|-----------------|-----------------|-----------------|-----------------|
D|-----------------|-----------------|-----------------|-----------------|
A|-----------------|-----------------|-----------------|-----------------|
E|-5-5-5-5-5-5-5-5-|-5-5-5-5-5-5-5-5-|-5-5-5-5-5-5-5-5-|-5-5-5-5-5-5-5-5-|

   A
G|-----------------|-----------------|-----------------|-----------------|
D|-----------------|-----------------|-----------------|-----------------|
A|-----------------|-----------------|-----------------|-----------------|
E|-5-5-5-5-5-5-5-5-|-5-5-5-5-5-5-5-5-|-5-5-5-5-5-5-5-5-|-5-5-5-5-5-5-5-5-|

Pre Chorus 2:

   C
G|-----------------|-----------------|-----------------|-----------------|
D|-----------------|-----------------|-----------------|-----------------|
A|-----------------|-----------------|-----------------|-----------------|
E|-8-8-8-8-8-8-8-8-|-8-8-8-8-8-3-6-3-|-8-8-8-8-8-8-8-8-|-8-0-1-0-2---3---|

   D                               E     G   E G   E G     E
G|-----------------|-----------------|-----------------|-----------------|
D|-----------------|-----------------|---------------5-|-5---6-6---5-75--|
A|/5-5-5-5-5-5-5-5-|-5-5-5-5-5-5-5---|-----------------|---7-----8-----7-|
E|-----------------|---------------0-|---3-3-0-3-3-0---|-----------------|

Chorus 2:

   A             G                 D                  D  C   B   A
G|-----------------|-----------------|-----------------|-----------------|
D|-----------------|-----------------|---------3h4-----|-----------------|
A|-----------------|---------------5-|-5-5-5-5-------5-|-----------------|
E|-5-5-5-5-5-5-5-3-|-3-3-3-3-3-3-3---|-----------------|-8---7---5---5-5-|

   A             G                 D                       E
G|-----------------|-----------------|-----------------|-----------------|
D|-----------------|-----------------|-----------------|-----------------|
A|-----------------|---------------5-|-5-5-5-5-5-5-5-5-|-5---------------|
E|-5-5-5-5-5-5-5-3-|-3-3-3-3-3-3-3---|-----------------|---0-1-0-2-0-3-0-|

   A                 B             D
G|-----------------|-----------------|-----------------|-----------------|
D|-----------------|-----------------|-----------------|---4---5-x-6-x-7-|
A|-----------------|---------------5-|-5-5-5-5-5-5-5-5-|-5---------------|
E|-5-5-5-5-5-5-5-7-|-7-7-7-6-7-7-7---|-----------------|-----------------|

   A             G                     D                               E
G|-----------------|-----------------|-----------------|-----------------|
D|-----------------|-----------------|-----------------|-----------------|
A|-----------------|-----------------|-5---------------|-----------------|
E|-5-5-5-5-5-5-5-3-|-3-3-3-3-3-3-3---|-----------------|---------------0-|

Bridge:

                                   E                                   E
G|-----------------|-----------------|-----------------|-----------------|
D|-----------------|-----------------|-----------------|-----------------|
A|-----------------|-----------------|-----------------|-----------5-6-7-|
E|-----------------|---------------0-|-----------------|-----------------|

     G     G   E G     E G         E      G  E G   E G     E G#
G|-----------------|-----------------|-----------------|-----------------|
D|---5-5---5-5---5-|-5---5-5-2-------|-----------------|-----------------|
A|-------------7---|---7-------------|-----------------|-----------------|
E|-----------------|-----------3-4-0-|---3-3-0-3-3-0-3-|-3-0-4-4-0-6-6-3-|

Guitar Solo:

   A                         D   A                               D   A
G|-----------------|-----------------|-----------------|-----------------|
D|-----------------|-----------------|-----------------|-----------------|
A|-----------------|---------5-4-----|-----------------|---------5-4-----|
E|-5-5-5-5-5-5-5-5-|-5-5-5-5-----5-5-|-5-5-5-5-5-5-5-5-|-5-5-5-5-----5-5-|

   A                         D   A                               D   A
G|-----------------|-----------------|-----------------|-----------------|
D|-----------------|-----------------|-----------------|-----------------|
A|-----------------|---------5-4-----|-----------------|---------5-4-----|
E|-5-5-5-5-5-5-5-5-|-5-5-5-5-----5-5-|-5-5-5-5-5-5-5-5-|-5-5-5-5-----5-5-|

   C
G|-----------------|-----------------|-----------------|-----------------|
D|-----------------|-----------------|-----------------|-----------------|
A|-----------------|-----------------|-----------------|-----------------|
E|-8-8-8-8-8-8-8-8-|-8-8-8-8-8-3-6-3-|-8-8-8-8-8-8-8-8-|-8-8-8-0-2-0-3-0-|

   D                               E     G   E G   E G     E
G|-----------------|-----------------|-----------------|-----------------|
D|-----------------|-----------------|---5-5---5-5-----|-----------------|
A|-5-5-5-5-5-5-5-5-|-5-5-5-5-5-5-5---|-------7-----7---|-----------------|
E|-----------------|---------------0-|---------------3-|-3-0-3-3-0-4-4-x-|

Chorus 3:

   A             G                 D
G|-----------------|-----------------|-----------------|-----------------|
D|-----------------|-----------------|-----------------|-----------------|
A|-----------------|---------------5-|-5-5-5-5-5-5-5-5-|-5-5-5-5-5-5-5-5-|
E|-5-5-5-5-5-5-5-3-|-3-3-3-3-3-3-3---|-----------------|-----------------|

   A             G                     D
G|-----------------|-----------------|-----------------|-----------------|
D|-----------------|-----------------|-----------------|-----------------|
A|-----------------|---------------4-|-5-5-5-5-5-5-5-5-|-5-5-5-5-5-------|
E|-5-5-5-5-5-5-5-3-|-3-3-3-3-3-3-3---|-----------------|-----------6-8-6-|

   A                 B             D
G|-----------------|-----------------|-----------------|-----------------|
D|-----------------|-----------------|-----------------|-----------------|
A|-----------------|---------------5-|-5-5-5-5-5-5-5-5-|-5-5-5-5-5-3-4---|
E|-5-5-5-5-5-5-5-7-|-7-7-7-7-7-7-7---|-----------------|---------------3-|

   A                 G                 D
G|-----------------|-----------------|-----------------|-----------------|
D|-----------------|-----------------|-----------------|-----------------|
A|-----------------|-----------------|-5---------------|-----------------|
E|-5---------------|-3---------------|-----------------|-----------------|

Interlude:

G|-----------------|-----------------|-----------------|-----------------|
D|-----------------|-----------------|-----------------|-----------------|
A|-----------------|-----------------|-----------------|-----------------|
E|-----------------|-----------------|-----------------|-----------------|

G|-----------------|-----------------|-----------------|-----------------|
D|-----------------|-----------------|-----------------|-----------------|
A|-----------------|-----------------|-----------------|-----------------|
E|-----------------|-----------------|-----------------|-----------------|

G|-----------------|-----------------|-----------------|-----------------|
D|-----------------|-----------------|-----------------|-----------------|
A|-----------------|-----------------|-----------------|-----------------|
E|-----------------|-----------------|-----------------|-----------------|

                                                           E
G|-----------------|-----------------|-----------------|-----------------|
D|-----------------|-----------------|-----------------|-----------------|
A|-----------------|-----------------|-----------------|-----------------|
E|-----------------|-----------------|-----------------|---0-1-2---3-4-5-|

     A                 G                 D
G|-----------------|-----------------|-----------------|-----------------|
D|-----------------|-----------------|-----------------|-----------------|
A|-----------------|-----------------|---5-----5-------|---5-----5-------|
E|---5-----5-------|---3-----3-------|-----------------|-----------------|

     A                 G                 D                 E
G|-----------------|-----------------|-----------------|-----------------|
D|-----------------|-----------------|-----------------|-----------------|
A|-----------------|-----------------|---5-----5-------|-----------------|
E|---5-----5-------|---3-----3-------|-----------------|---0-1-2---3-4-5-|

   A             G                 D
G|-----------------|-----------------|-----------------|-----------------|
D|-----------------|-----------------|-----------3h4---|-----------------|
A|-----------------|-------------4-5-|---5-5-x-5-----5-|---3-----3-------|
E|-5-5---5-5-5-5-3-|---3-3-3-3-3-----|-----------------|-----5-x---5-3-5-|

     A           G                     D
G|-----------------|-----------------|-----------------|-----------------|
D|-----------------|-----------------|-----------------|-----------------|
A|-----------------|---------------4-|-5-5-5-5-5-5-5-5-|-5---------------|
E|---5-----5-5-5-3-|---3-----3-3-3---|-----------------|---0-1-2---3-4-5-|

Outro:

   A             B                 D
G|-----------------|-----------------|-----------------|-----------------|
D|-----------------|-----------------|-----------------|-----------------|
A|-----------------|---------------5-|-5-5-5-5-5-5-5-5-|-5-5-5-5-5-5-5---|
E|-5-5-5-5-5-5-5-7-|-7-7-7-7-7-7-7---|-----------------|---------------5-|

     A             B               D
G|-----------------|-----------------|-----------------|-----------------|
D|-----------------|-----------------|-----------------|---4---5-x-6-x-7-|
A|-----------------|---------------5-|-5-5-5-5-5-5-5-5-|-----------------|
E|-5-5-5-5-5-5-5-7-|-7-7-7-6-7-7-7---|-----------------|-----------------|

   A             B                 D                        E
G|-----------------|-----------------|-----------------|-----------------|
D|-----------------|-----------------|-----------------|-----------------|
A|-----------------|---------------5-|-5-5-5-5-5-5-5-5-|-5---------------|
E|-5-5-5-5-5-5-5-7-|-7-7-7-7-7-7-7---|-----------------|---0-1-2---3-4-5-|

   A             G                 D
G|-----------------|-----------------|-----------------|-----------------|
D|-----------------|-----------------|-----------------|-----------------|
A|-----------------|---------------5-|-5-5-5-5-5-5-5-5-|-5-5-5-5-5-5-5---|
E|-5-5-5-5-5-5-5-3-|-3-3-3-3-3-3-3---|-----------------|---------------3-|

   A             B                 D
G|-----------------|-----------------|-----------------|-----------------|
D|-----------------|-----------------|-----------------|-----------------|
A|-----------------|---------------5-|-5-5-5-5-5-5-5-5-|-5-5-5-5-5-3-4---|
E|-5-5-5-5-5-5-5-7-|-7-7-7-7-7-7-7---|-----------------|---------------5-|

   A             B                     D                         G
G|-----------------|-----------------|-----------------|-----------------|
D|-----------------|-----------------|-----------------|---------5---5---|
A|-----------------|---------------4-|-5-5-5-5-5-5-5-5-|-5-5-5-5---------|
E|-5-5-5-5-5-5-5-7-|-7-7-7-7-7-7-7---|-----------------|-----------------|

   D                         G         D                               G
G|-----------------|-----------------|-----------------|-----------------|
D|-----------------|---------5---5---|-----------------|-----------------|
A|-5-5-5-5-5-5-5-5-|-5-5-5-5---------|-5-----5-----5---|-----------------|
E|-----------------|-----------------|-----------------|---------------3-|

(Half Speed)

       G   A
G|-----------------|-----------------|------------------|----------------|
D|-----------------|-----------------|------------------|----------------|
A|-----------------|-----------------|------------------|----------------|
E|-----3---55555555|55555555555555555|555555555555555555|--------------5-|


All you women who want a man of the street
But you don't know which way you wanna turn
Just keep a coming and put your hand out to me
'Cause I'm the one who's gonna make you burn

I'm gonna take you down - down, down, down
So don't you fool around
I'm gonna pull it, pull it, pull the trigger

Shoot to thrill, play to kill
Too many women with too many pills
Shoot to thrill, play to kill
I got my gun at the ready, gonna fire at will

I'm like evil, I get under your skin
Just like a bomb that's ready to blow
'Cause I'm illegal, I got everything
That all you women might need to know

I'm gonna take you down - down, down, down
So don't you fool around
I'm gonna pull it, pull it, pull the trigger

Shoot to thrill, play to kill
Too many women with too many pills
Shoot to thrill, play to kill
I got my gun at the ready, gonna fire at will
Shoot to thrill, ready to kill
I can't get enough, I can't get the thrill
I shoot to thrill, play to kill
Pull the trigger


================================================
3. WHAT DO YOU DO FOR MONEY HONEY
================================================

Intro:

   E     G                             E     G
G|-----------------|-----------------|-----------------|-----------------|
D|-----------------|-----------------|-----------------|-----------------|
A|-----------------|-----------------|-----------------|-----------------|
E|-0-----3---------|-----------------|-0-----3---------|-----------------|

   E     G                             E     G
G|-----------------|-----------------|-----------------|-----------------|
D|-----------------|-----------------|-----------------|-----------------|
A|-----------------|-----------------|-----------------|-----------------|
E|-0-----3---------|-----------------|-0-----3---------|-----------------|


 Pre Verse 1:

   E                                                           G   F#
G|-----------------|-----------------|-----------------|-----------------|
D|-----------------|-----------------|-----------------|-----------------|
A|-----------------|-----------------|-----------------|-----------------|
E|-0-0-0-0-0-0-0-0-|-0-0-0-0-0-0-0-0-|-0-0-0-0-0-0-0-0-|-0-0-0-3-3-2-2-0-|

Verse 1:

   E                                                           G   F#
G|-----------------|-----------------|-----------------|-----------------|
D|-----------------|-----------------|-----------------|-----------------|
A|-----------------|-----------------|-----------------|-----------------|
E|-0-0-0-0-0-0-0-0-|-0-0-0-0-0-0-0-0-|-0-0-0-0-0-0-0-0-|-0-0-0-3-3-2-2-0-|

   E
G|-----------------|-----------------|-----------------|-----------------|
D|-----------------|-----------------|-----------------|-----------------|
A|-----------------|-----------------|-----------------|-----------------|
E|-0-0-0-0-0-0-0-0-|-0-0-0-0-0-0-0-0-|-0-0-0-0-0-0-0-0-|-0-0-0-0-0-0-0-0-|

   E
G|-----------------|-----------------|-----------------|-----------------|
D|-----------------|-----------------|-----------------|-----------------|
A|-----------------|-----------------|-----------------|-----------------|
E|-0-0-0-0-0-0-0-0-|-0-0-0-0-0-0-0-0-|-0-0-0-0-0-0-0-0-|-0-0-0-0-0-0-0-0-|

Pre Chorus 1:

    E     D                G   F#       E    D       A
G|-----------------|-----------------|-----------------|-----------------|
D|-----------------|-----------------|-----------------|-----------------|
A|-7-7-7-5---5-5-4-|-----------------|-7-7-7-5---------|-----------------|
E|-----------------|-------3---2-----|---------------5-|---5-5-5-5-5-5-5-|

   A
G|-----------------|
D|-------------7---|
A|----------/7---7-|
E|-5-5-5-5-5-------|

Chorus 1:

   E     G             D     A         E     G             D     A
G|-----------------|-----------------|-----------------|-----------------|
D|-----------------|-----------------|-----------------|-----------------|
A|-----------------|---5-5-5---------|-----------------|---5-5-5---------|
E|-0-----3---3-3-3-|-3-------5-5-5-5-|-0-----3---3-3-3-|-3-------5-5-3-2-|

   E     G             D     A         E     G             D     A
G|-----------------|-----------------|-----------------|-----------------|
D|-----------------|-----------------|-----------------|-----------------|
A|-----------------|---5-5-5---------|-----------------|---5-5-5---------|
E|-0-----3---3-3-3-|-3-------5-5-5-5-|-0-----3---------|---------5-5-----|


Pre Verse 2:

   E     D       Db        G   F#      E     D       Db        G   F#
G|-----------------|-----------------|-----------------|-----------------|
D|-----------------|-----------------|-----------------|-----------------|
A|-7-----5-------4-|-----------------|-7-----5-------4-|-----------------|
E|-----------------|-------3---2-----|-----------------|-------3---2-----|

Verse 2:

   E                                                            G   F#
G|-----------------|-----------------|-----------------|-----------------|
D|-----------------|-----------------|-----------------|-----------------|
A|-----------------|-----------------|-----------------|-----------------|
E|-0-0-0-0-0-0-0-0-|-0-0-0-0-0-0-0-0-|-0-0-0-0-0-0-0-0-|-0-0-0-3-3-2-2-0-|

   E
G|-----------------|-----------------|-----------------|-----------------|
D|-----------------|-----------------|-----------------|-----------------|
A|-----------------|-----------------|-----------------|-----------------|
E|-0-0-0-0-0-0-0-0-|-0-0-0-0-0-0-0-0-|-0-0-0-0-0-0-0-0-|-0-0-0-0-0-0-0-0-|

   E
G|-----------------|-----------------|-----------------|-----------------|
D|-----------------|-----------------|-----------------|-----------------|
A|-----------------|-----------------|-----------------|-------------5-7-|
E|-0-0-0-0-0-0-0-0-|-0-0-0-0-0-0-0-0-|-0-0-0-0-0-0-0-0-|-0-0-0-0-5-7-----|

Pre Chorus 2:

    E     D                G   F#       E    D       A
G|-----------------|-----------------|-----------------|-----------------|
D|-----------------|-----------------|-----------------|-----------------|
A|-7-7-7-5---5-5-4-|-----------------|-7-7-7-5---------|-----------------|
E|-----------------|-------3---2-----|---------------5-|---5-5-5-5-5-5-5-|

   A
G|-----------------|
D|-----------------|
A|-----------5-75--|
E|-5-5-5-5-5-----7-|

Chorus 2:

   E     G             D     A         E     G             D     A
G|-----------------|-----------------|-----------------|-----------------|
D|-----------------|-----------------|-----------------|-----------------|
A|-----------------|---5-5-5---------|-----------------|---5-5-5---------|
E|-0-----3---3-3-3-|-3-------5-5-5-5-|-0-----3---3-3-3-|-3-------5-5-5-5-|

   E     G             D     A         E     G             D     A
G|-----------------|-----------------|-----------------|-----------------|
D|-----------------|-----------------|-----------------|-----------------|
A|-----------------|---5-5-5---------|-----------------|---5-5-5---------|
E|-0-----3---3-3-3-|-3-------5-5-5-5-|-0-----3---------|---------5-5-----|

Bridge:

                                       E
G|-----------------|-----------------|-----------------|-----------------|
D|-----------------|-----------------|-----------------|-----------------|
A|-----------------|-----------------|-----------------|-----------------|
E|-----------------|-----------------|-0---------------|-----------------|

Guitar Solo:

    A
G|-----------------|-----------------|-----------------|-----------------|
D|-----------------|-----------------|-----------------|-----------------|
A|-----------------|-----------------|-----------------|-----------------|
E|-5-5-5-5-5-5-5-3-|-5-5-5-5-5-5-5-3-|-5-5-5-5-5-5-5-3-|-5-5-5-5-5-5-5-3-|

    A
G|-----------------|-----------------|-----------------|-----------------|
D|-----------------|-----------------|-----------------|-----------------|
A|-----------------|-----------------|-----------------|-----------------|
E|-5-5-5-5-5-5-5-3-|-5-5-5-5-5-5-5-3-|-5-5-5-5-5-5-5-3-|-5-5-5-5-5-5-5---|

   E                       G   F#      E                      G    F#
G|-----------------|-----------------|-----------------|-----------------|
D|-----------------|-----------------|-----------------|-----------------|
A|-----------------|-----------------|-----------------|------10---9-----|
E|-0---------------|-------3---2-----|-0---------------|-----------------|

   E     D       Db        G   F#      E     D       Db        G   F#
G|-----------------|-----------------|-----------------|-----------------|
D|-----------------|-----------------|-----------------|-----------------|
A|-------5-------4-|-----------------|-7-----5-------4-|-----------------|
E|-0---------------|-------3---2-----|-----------------|-------3---2-----|

    E     D                G   F#       E    D       A
G|-----------------|-----------------|-----------------|-----------------|
D|-----------------|-----------------|-----------------|-----------------|
A|-7-7-7-5---5-5-4-|-----------------|-7-7-7-5---------|-----------------|
E|-----------------|-------3---2-----|---------------5-|---5-5-5-5-5-5-5-|

   A
G|-----------------|
D|-------------7---|
A|----------/7-----|
E|-5-5-5-5-5-------|

Chorus 3:

   E     G             D     A         E     G             D     A
G|-----------------|-----------------|-----------------|-----------------|
D|-----------------|-----------------|-----------------|-----------------|
A|-----------------|---5-5-5---------|-----------------|---5-5-5---5-7-x-|
E|-0-----3---3-3-3-|-3-------5-5-5-5-|-0-----3---3-3-3-|-3-------5-------|

   E     G             D     A         E     G             D     A
G|-----------------|-----------------|-----------------|-----------------|
D|-----------------|-----------------|-----------------|-----------5-7---|
A|-----------------|---5-5-5---------|-----------------|---5-5-5---------|
E|-0-----3---3-3-3-|-3-------5-5-5-5-|-0-----3---------|---------5-------|


   E     G             D     A         E     G             D     A
G|-----------------|-----------------|-----------------|-----------------|
D|-----------------|-----------------|-----------------|-----------------|
A|-----------------|---5-5-5---------|-----------------|---5-5-5---------|
E|-0-----3---3-3-3-|-3-------5-5-5-5-|-0-----3---3-3-3-|-3-------5-5-5-5-|

   E     G             D     A         E     G
G|-----------------|-----------------|-----------------|-----------------|
D|-----------------|-----------------|-----------------|-----------------|
A|-----------------|---5-5-5---------|-----------------|-----------------|
E|-0-----3---3-3-3-|-3-------5-5-5-5-|-0-----3---------|-----------------|

Half Speed

   D   A                               E
G|-----------------|-----------------|-----------------|-----------------|
D|-----------------|-----------------|-----------------|-----------------|
A|-5---------------|-----------------|-----------------|-----------------|
E|-----5-----------|-----------------|-0---------------|-----------------|


You're workin in bars, ridin in cars
Never gonna give it for free
Your apartment with a view
On the finest avenue
Lookin at your beat on the street
You're always pushin, shovin
Satisfied with nothing
You bitch you must be gettin old
So stop your love on the road
All your diggin for gold
You make me wonder
Yes I wonder
I wonder

Honey, what do you do for money
Honey, what do you do for money
How do ya get your kicks?

You're ridin on the take and you're always on the make
Squeezin all the blood out of men
They're standin in a queue just to spend the night wth you
It's business as usual again
You're always grabbin, stabbin
Tryin to get it back but girl you must be gettin slow
So stop your love on the road
All your diggin for gold
You make me wonder
Yes I wonder
Yes I wonder

Honey, what do you do for money
Honey, what do you do for money
What do you do for money honey?
How do you get your kicks?
What do you do for money honey?
How do you get your licks?

What you gonna do?
Aw what you gonna do?


================================================
4. GIVIN THE DOG A BONE
================================================

Intro: (0:15)

   C A   D A   C A     D A   C A       C A   D A   C  A    D  A   C
G|-----------------|-----------------|-----------------|-----------------|
D|-----------------|-----------------|-----------------|-----------------|
A|-3-----5-----3---|---5-----3-------|-3-----5-----3---|---5-----3-------|
E|---5-5---5-5---5-|-5---5-5---5-5-5-|---5-5---5-5---5-|-5---5-5---5-5-5-|

Verse 1:

   C A   D A   C A     D A   C A
G|-----------------|-----------------|-----------------|-----------------|
D|-----------------|-----------------|-----------------|-----------------|
A|-3-----5-----3---|---5-----3-------|-----------------|---3-------------|
E|---5-5---5-5---5-|-5---5-5---5-5-5-|-5-5-5-5-5-5-5-5-|-5---5-5-5-5-5-5-|

   A
G|-----------------|-----------------|-----------------|-----------------|
D|-----------------|-----------------|-----------------|-----------------|
A|-----------------|-----------------|-----------------|-----------------|
E|-5-5-5-5-5-5-5-5-|-5-5-5-5-5-5-5-5-|-5-5-5-5-5-5-5-5-|-5-5-5-5-5-5-5-3-|

   A
G|-----------------|-----------------|-----------------|-----------------|
D|-----------------|-----------------|-----------------|-----------------|
A|-----------------|---------------3-|-----------------|-------------0-2-|
E|-5-5-5-5-5-5-5-5-|-5-5-5-5-5-5-5---|-5-5-5-5-5-5-5-5-|-5-5-5-5-5-3-----|

Pre Chorus 1:

   C B A D           C A   D A C D     C B A D           A
G|-----------------|-----------------|-----------------|-----------------|
D|-----------------|-----------------|-----------------|-----------------|
A|-3-2-0-5---5-5-2-|-3-----5---3-----|-3-2-0-5---5-5-5-|-----------------|
E|-----------------|---5-5---5---5---|-----------------|-5-5-5-4-5-5-5-5-|

   C B A D           C A   D A C D
G|-----------------|-----------------|
D|-----------------|-----------------|
A|-3-2-0-5---5-5-5-|-3-----5---3-----|
E|-----------------|---5-5---5---5-0-|

Chorus 1:

   G E    A  G E     G E   A   G E     G E   A   G E     G E   A   G E
G|-----------------|-----------------|-----------------|-----------------|
D|-----------------|-----------------|-----------------|-----------------|
A|-----------------|-----------------|-----------------|-----------------|
E|-3-0-0-5---3-0---|-3-0-0-5---3-0---|-3-0-0-5---3-0---|-3-0-0-5---3-0---|

   G E    A  G E     G E   A   G E     G E   A   G E     G E   A   G E
G|-----------------|-----------------|-----------------|-----------------|
D|-----------------|-----------------|-----------------|-----------------|
A|-----------------|-----------------|-----------------|-----------------|
E|-3-0-0-5---3-0---|-3-0-0-5---3-0---|-3-0-0-5---3-0---|-3-0-0-5---3-0---|

Pre Verse 2:

   C A   D A   C A     D A   C A       C A   D A   C  A    D  A   C
G|-----------------|-----------------|-----------------|-----------------|
D|-----------------|-----------------|-----------------|-----------------|
A|-3-----5-----3---|---5-----3-------|-3-----5-----3---|---5-----3-------|
E|---5-5---5-5---5-|-5---5-5---5-5-3-|---5-5---5-5---5-|-5---5-5---5-5-3-|

Verse 2:

  A
G|-----------------|-----------------|-----------------|-----------------|
D|-----------------|-----------------|-----------------|-----------------|
A|-----------------|-----------------|-----------------|-----------------|
E|-5-5-5-5-5-5-5-5-|-5-5-5-5-5-5-5-5-|-5-5-5-5-5-5-5-5-|-5-5-5-5-5-5-5-3-|

   A
G|-----------------|-----------------|-----------------|-----------------|
D|-----------------|-----------------|-----------------|-----------------|
A|-----------------|-----------------|-----------------|-------------0-2-|
E|-5-5-5-5-5-5-5-5-|-5-5-5-5-5-5-5-3-|-5-5-5-5-5-5-5-5-|-5-5-5-5-5-3-----|

Pre Chorus 1:

   C B A D           C A   D A C D     C B A D           C A   D A C A
G|-----------------|-----------------|-----------------|-----------------|
D|-----------------|-----------------|-----------------|-----------------|
A|-3-2-0-5---5-5-2-|-3-----5---3-----|-3-2-0-5---5-5-5-|-3-----5---3-----|
E|-----------------|---5-5---5---5---|-----------------|---5-5---5---5-3-|

   C B A D           C A   D A C D
G|-----------------|-----------------|
D|-----------------|-----------------|
A|-3-2-0-5---5-5-5-|-3-----5---3-----|
E|-----------------|---5-5---5---5---|

Chorus 2:

   G E    A  G E     G E   A   G E     G E   A   G E     G E   A   G E
G|-----------------|-----------------|-----------------|-----------------|
D|-----------------|-----------------|-----------------|-----------------|
A|-----------------|-----------------|-----------------|-----------------|
E|-3-0-0-5---3-0---|-3-0-0-5---3-0---|-3-0-0-5---3-0---|-3-0-0-5---3-0---|

   G E    A  G E     G E   A   G E     G E   A   G E     G E   A   G E
G|-----------------|-----------------|-----------------|-----------------|
D|-----------------|-----------------|-----------------|-----------------|
A|-----------------|-----------------|-----------------|-----------------|
E|-3-0-0-5---3-0---|-3-0-0-5---3-0---|-3-0-0-5---3-0---|-3-0-0-5---3-0---|

Guitar Solo:

   A                       D   C A     C A   D   C A           D   C A
G|-----------------|-----------------|-----------------|-----------------|
D|-----------------|-----------------|-----------------|-----------------|
A|-----------------|-------5---------|-------5---------|-------5---------|
E|-5-5-5-5-5-5-5-5-|-5-5-5-----8-5---|-8-5-5-----8-5-5-|-5-5-5-----8-5---|

   C A                         C A                             D   C A
G|-----------------|-----------------|-----------------|-----------------|
D|-----------------|-----------------|-----------------|-----------------|
A|-----------------|-----------------|-----------------|-------5---------|
E|-8-5-5-4-5-5-5-5-|-4-5-5-5-5-8-5---|-5-5-5-5-5-5-5-5-|-4-5-5-----8-5-5-|

   G E               G E   A   G E     G                 G     A   G E
G|-----------------|-----------------|-----------------|-----------------|
D|-----------------|-----------------|-----------------|-----------------|
A|-----------------|-----------------|-----------------|-----------------|
E|-3-0-0-0-0-0-0-0-|-3-0-0-5---3-0-0-|-3-0-0-0-0-0-0-0-|-3-0-0-5---3-0-0-|

   G E               G E   A   G E     G E   A   G E     G E   A   G E
G|-----------------|-----------------|-----------------|-----------------|
D|-----------------|-----------------|-----------------|-----------------|
A|-----------------|-----------------|-----------------|-----------------|
E|-3-0-0-0-0-0-0-0-|-3-0-0-5---3-0-0-|-3-0-0-5---3-0-0-|-3-0-0-5---3-0-0-|

   G     A     G       A     G   A     A
G|-----------------|-----------------|-----------------|-----------------|
D|-----------------|-----------------|-----------------|-----------------|
A|-----------------|-----------------|-----------------|-----------------|
E|-3-----5-----3---|---5-----3---5---|-5---------------|-----------------|

Verse 3:

   C A   D A   C A     D A   C A       C A   D A   C  A    D  A   C
G|-----------------|-----------------|-----------------|-----------------|
D|-----------------|-----------------|-----------------|-----------------|
A|-3-----5-----3---|---5-----3-------|-3-----5-----3---|---5-----3-------|
E|---5-5---5-5---5-|-5---5-5---5-5-5-|---5-5---5-5---5-|-5---5-5---5-5-5-|

   C A   D A   C A     D A   C A       C A   D A   C  A    D  A   C
G|-----------------|-----------------|-----------------|-----------------|
D|-----------------|-----------------|-----------------|-----------------|
A|-3-----5-----3---|---5-----3-------|-3-----5-----3---|---5-----3-------|
E|---5-5---5-5---5-|-5---5-5---5-5-5-|---5-5---5-5---5-|-5---5-5---5-5-5-|

Chorus 3:

   G E    A  G E     G E   A   G E     G E   A   G E     G E   A   G E
G|-----------------|-----------------|-----------------|-----------------|
D|-----------------|-----------------|-----------------|-----------------|
A|-----------------|-----------------|-----------------|-----------------|
E|-3-0-0-5---3-0---|-3-0-0-5---3-0---|-3-0-0-5---3-0---|-3-0-0-5---3-0---|

   G E    A  G E     G E   A   G E     G E   A   G E     G E   A   G E
G|-----------------|-----------------|-----------------|-----------------|
D|-----------------|-----------------|-----------------|-----------------|
A|-----------------|-----------------|-----------------|-----------------|
E|-3-0-0-5---3-0---|-3-0-0-5---3-0---|-3-0-0-5---3-0---|-3-0-0-5---3-0---|

   C A   D   C A     C A   D   C A     C A   D   C A     C A   D   C A
G|-----------------|-----------------|-----------------|-----------------|
D|-----------------|-----------------|-----------------|-----------------|
A|-------5---------|-------5---------|-------5---------|-------5---------|
E|-8-5-5---5-8-5-5-|-8-5-5---5-8-5-5-|-8-5-5---5-8-5-5-|-8-5-5---5-8-5-5-|

   C A   D A C       C A   D A C
G|-----------------|-----------------|
D|-----------------|-----------------|
A|-------5---------|-------5---------|
E|-8-5-5---5-8-5-5-|-8-5-5---5-8-5-5-|

Outro: (Gradually slow down)

   C     D     C       D     C   D     C     D     C       D     C
G|-----------------|-----------------|-----------------|-----------------|
D|-----------------|-----------------|-----------------|-----------------|
A|-3-----5-----3---|---5-----3---5---|-3-----5-----3---|---5-----3-------|
E|-----------------|-----------------|-----------------|-----------------|

   G       A                       A
G|-----------------|-----------------|
D|-----------------|-----------------|
A|-----------------|-----------------|
E|-3-------5-------|---------------5-|


She takes you down easy
Going down to her knees
Going down to the devil
Down down to ninety degrees
She's blowing me crazy
Till my ammunition is dry

She's using her head again
She's using her head
She's using her head again

I'm just giving the dog a bone

She's no Mona Lisa
She's no Playboy star
But she'll send you to heaven
Then explode you to Mars

She's using her head again
She's using her head
She's using her head again

I'm just giving the dog a bone

She got the power of union
She only hits when it's hot
And if she likes what you're doing
She'll give you a lot
(Given everything she got)

I've just given the dog a bone


================================================
5. LET ME PUT MY LOVE INTO YOU
================================================

Intro: (After 3 guitar notes)

       E
G|-----------------|-----------------|-----------------|-----------------|
D|-----------------|-----------------|-----------------|-----------------|
A|-----------------|-----------------|-----------------|-----------------|
E|-----0-------0---|-----0-------0---|-----0-------0---|-----0-------0---|

       E                                                           G F#E
G|-----------------|-----------------|-----------------|-----------------|
D|-----------------|-----------------|-----------------|-----------------|
A|-----------------|-----------------|-----------------|-----------------|
E|-----0-------0---|-----0-------0---|-----0-------0---|-----0-----3-2-0-|

   E                                                 A             G F#E
G|-----------------|-----------------|-----------------|-----------------|
D|-----------------|-----------------|-----------------|-----------------|
A|-----------------|-----------------|-----------------|-----------------|
E|-0-0-0-0-0-0-0-0-|-0-0-0-0-0-0-0-0-|-0-0-0-0-0-0-0-5-|-5-5-5-5-5-3-2-0-|

   E                               E         D       A
G|-----------------|-----------------|-----------------|-----------------|
D|-----------------|-----------------|-----------------|-----------------|
A|-----------------|-------------5-7-|-7-7-7-5-5-5-5---|-----------------|
E|-0-0-0-0-0-0-0-0-|-0-0-0-0-0/7-----|---------------5-|-5-5-5-5-5-3-2-0-|

Verse 1:

   E                                                 A
G|-----------------|-----------------|-----------------|-----------------|
D|-----------------|-----------------|-----------------|-----------------|
A|-----------------|-----------------|-----------------|-----------------|
E|-0-0-0-0-0-0-0-0-|-0-0-0-0-0-0-0-0-|-0-0-0-0-0-0-0-5-|-5-5-5-5-5-5-5-0-|

   E                                                 A
G|-----------------|-----------------|-----------------|-----------------|
D|-----------------|-----------------|-----------------|-----------------|
A|-----------------|-----------------|-----------------|-----------------|
E|-0-0-0-0-0-0-0-0-|-0-0-0-0-0-0-0-0-|-0-0-0-0-0-0-0-5-|-5-5-5-5-5-3-2-0-|

   E                                                 A
G|-----------------|-----------------|-----------------|-----------------|
D|-----------------|-----------------|-----------------|-----------------|
A|-----------------|-----------------|-----------------|-----------------|
E|-0-0-0-0-0-0-0-0-|-0-0-0-0-0-0-0-0-|-0-0-0-0-0-0-0-5-|-5-5-5-5-5-3-2-0-|

   E                                                 A
G|-----------------|-----------------|-----------------|-----------------|
D|-----------------|-----------------|-----------------|-----------------|
A|-----------------|-----------------|-----------------|-----------------|
E|-0-0-0-0-0-0-0-0-|-0-0-0-0-0-0-0-0-|-0-0-0-0-0-0-0-5-|-5-5-5-5-5-5-5-5-|

Pre Chorus 1:

   E                 A                 E                 A   G A
G|-----------------|-----------------|-----------------|-----------------|
D|-----------------|-----------------|-----------------|-----------------|
A|-----------------|-----------------|-----------------|-----------------|
E|-0-----0---------|-5-----5---------|-0-----0---------|-5-5-3-5---5-5---|

Chorus 1:

   D       A     E                     D       A     E
G|-----------------|-----------------|-----------------|-----------------|
D|-----------------|-----------------|-----------------|-----------------|
A|-5-5-5-5---------|---------------4-|-5-5-5-5---------|-----------------|
E|---------5-5-5-0-|-0-0-0-0-0-5-7---|---------5-5-5-0-|-----0-0-0-0-0-0-|

   D       A     E                     D      A          E
G|-----------------|-----------------|-----------------|-----------------|
D|-----------------|-----------------|-----------------|-----------------|
A|-5-5-5-5---------|-------------5-7-|-5---------------|-----------------|
E|---------5-5-5-0-|-0-0-0-0-0/7-----|--------5--------|-0---------3-2-0-|

Pre Verse 2:

   E                                                 A
G|-----------------|-----------------|-----------------|-----------------|
D|-----------------|-----------------|-----------------|-----------------|
A|-----------------|-----------------|-----------------|-----------------|
E|-0-0-0-0-0-0-0-0-|-0-0-0-0-0-0-0-0-|-0-0-0-0-0-0-0-5-|-5-5-5-5-5-3-2-0-|

Verse 2:


   E                                                 A
G|-----------------|-----------------|-----------------|-----------------|
D|-----------------|-----------------|-----------------|-----------------|
A|-----------------|-----------------|-----------------|-----------------|
E|-0-0-0-0-0-0-0-0-|-0-0-0-0-0-0-0-0-|-0-0-0-0-0-0-0-5-|-5-5-5-5-5-5-5-5-|

   E                                                 A
G|-----------------|-----------------|-----------------|-----------------|
D|-----------------|-----------------|-----------------|-----------------|
A|-----------------|-----------------|-----------------|-----------------|
E|-0-0-0-0-0-0-0-0-|-0-0-0-0-0-0-0-0-|-0-0-0-0-0-0-0-5-|-5-5-5-5-5-5-5-5-|

Pre Chorus 2:

   E                 A                 E                 A   G A
G|-----------------|-----------------|-----------------|-----------------|
D|-----------------|-----------------|-----------------|-----------------|
A|-----------------|-----------------|-----------------|-----------------|
E|-0-----0---------|-5-----5---------|-0-----0---------|-5-5-3-5---x-7-7-|

Chorus 2:

   D       A     E                     D       A     E
G|-----------------|-----------------|-----------------|-----------------|
D|-----------------|-----------------|-----------------|-----------------|
A|-5-5-5-5---------|-----------------|-5-5-5-5---------|-----------------|
E|---------5-5-5-0-|-0-0-0-0-0-0-0-0-|---------5-5-5-0-|-0-0-0-0-0-/7\-x-|

   D        A    E                     D       A         E
G|-----------------|-----------------|-----------------|-----------------|
D|-----------------|-----------------|-----------------|-----------------|
A|-5-5-5-5---------|-----------------|-5---------------|-----------------|
E|---------5-5-5-0-|-0-0-0-0-0-0-0-0-|---------5-------|-0---------------|

   E
G|-----------------|
D|-----------------|
A|-----------------|
E|-0-0-0-0-0-0-0-0-|
   > > > > > > > >

Guitar Solo:

   E                 A                 E                 A   G A
G|-----------------|-----------------|-----------------|-----------------|
D|-----------------|-----------------|-----------------|-----------------|
A|-----------------|-----------------|-----------------|-----------------|
E|-0-----0---------|-5-----5---------|-0-----0---------|-5-5-3-5---------|

   E                 A                 E                 A   G A
G|-----------------|-----------------|-----------------|-----------------|
D|-----------------|-----------------|-----------------|-----------------|
A|-----------------|-----------------|-----------------|-----------------|
E|-0-----0---------|-5-----5---------|-0-----0---------|-5-5-3-5---------|

   E                 A                 E                 A   G A
G|-----------------|-----------------|-----------------|-----------------|
D|-----------------|-----------------|-----------------|-----------------|
A|-----------------|-----------------|-----------------|-----------------|
E|-0-0-0-0-0-0-0-0-|-5-5-5-5-5-5-5-5-|-0-0-0-0-0-0-0-0-|-5-5-3-5---5-5-5-|

   E                 A                 E                 A
G|-----------------|-----------------|-----------------|-----------------|
D|-----------------|-----------------|-----------------|-----------------|
A|-----------------|-----------------|-----------------|-----------------|
E|-0-0-0-0-0-0-0-0-|-5-5-5-5-5-5-5-5-|-0-0-0-0-0-0-0-4-|-5---5-5-5-5-5-5-|

   A
G|-----------------|
D|-----------------|
A|---------------4-|
E|-5-5-5-5-5-5-5---|

Chorus 3:

   D       A     E                     D       A     E
G|-----------------|-----------------|-----------------|-----------------|
D|-----------------|-----------------|-----------------|-----------------|
A|-5-5-5-5---------|-----------------|-5-5-5-5---------|-----------7-75--|
E|---------5-5-5-0-|-0-0-0-0-0-0-0-0-|---------5-5-5-0-|-0-0-0-0-0-----7-|

   D        A    E                     D       A     E
G|-----------------|-----------------|--------------/9-|---9-9-9-9-9-9-9-|
D|-----------------|-----------------|-----------------|-----------------|
A|-5-5-5-5---------|-----------------|-5-5-5-5---------|-----------------|
E|---------5-5-5-0-|-0-0-0-0-0-0-0-0-|---------5-5-5---|-----------------|

   D       A     E                     D       A     E
G|-----------------|-----------------|-----------------|-----------------|
D|-----------------|-----------------|-----------------|-----------------|
A|-5-5-5-5---------|-------------2-4-|-5-5-5-5---------|-----------------|
E|---------5-5-5-0-|-0-0-0-0-0-5-----|---------5-5-5-0-|-0-0-0-0-0-0-0-0-|

   D        A    E                     D                 A
G|---------------9-|---9-9-9-9-9-9---|-----------------|-----------------|
D|-----------------|---------------9-|-----------------|-----------------|
A|-5-5-5-5---------|-----------------|-5---------------|-----------------|
E|---------5-5-5---|-----------------|-----------------|-5---------------|

Outro: (After 3 guitar notes, half speed)

       E               E D E           D                  A
G|-----------------|-----------------|------------------|----------------|
D|-----------------|-----------------|------------------|----------------|
A|-----------------|---7-5-7---------|-5----------------|----------------|
E|-----0-------0---|-----------------|------------------|-5--------------|

Flying on a free flight
Driving all night
With my machinery
'Cause I got the power
Any hour
To show the man in me
I got reputations
Blown to pieces
With my artillery
I'll be guided in
We'll be riding
Given what you got to me

Don't you struggle
Don't you fight
Don't you worry
'Cause it's your turn tonight

Let me put my love into you, babe
Let me put my love on the line
Let me put my love into you, babe
Let me cut your cake with my knife

Like a fever
Burning faster
You spark the fire in me
Crazy feelings
Got me reeling
They got me raising steam

Don't you struggle
Don't you fight
Don't you worry
'Cause it's your turn tonight

Let me put my love into you, babe
Let me put my love on the line
Let me put my love into you, babe
Let me cut your cake with my knife

Let me give it all to you

================================================
6. BACK IN BLACK
================================================

Intro: (0:05)

   E     D       Db                    E     D       Db      B
G|-----------------|-----------------|-----------------|-----------------|
D|-----------------|-----------------|-----------------|-----------------|
A|-------555-----44|-4---------------|-------555-----44|-4---------------|
E|-0---------------|-----------------|-0---------------|-----74-75-76-77-|

   E     D       Db                    E     D       Db      B
G|-----------------|-----------------|-----------------|-----------------|
D|-----------------|-----------------|-----------------|-----------------|
A|-------555-----44|-4---------------|-------555-----44|-4---------------|
E|-0---------------|-----------------|-0---------------|-----74-75-76-77-|

Verse 1:

   E     D       Db                    E     D       Db      B
G|-----------------|-----------------|-----------------|-----------------|
D|-----------------|-----------------|-----------------|-----------------|
A|-------555-----44|-4---------------|-------555-----44|-4---------------|
E|-0---------------|-----------------|-0---------------|-----74-75-76-77-|

   E     D       Db                    E     D       Db      B
G|-----------------|-----------------|-----------------|-----------------|
D|-----------------|-----------------|-----------------|-----------------|
A|-------555-----44|-4---------------|-------555-----44|-4---------------|
E|-0---------------|-----------------|-0---------------|-----74-75-76-77-|

Chorus 1:

   B          A  B              A   B     A       G  A              G  A
G|-----------------|-----------------|-----------------|-----------------|
D|-----------------|-----------------|-----------------|-----------------|
A|-----------------|-----------------|-----------------|-----------------|
E|-7-7-7-7-7--5--7-|-7-7-7-7-7--5--7-|-0-5-5-5-5--3--5-|-5-5-5-5-5--3--5-|

     A  E  B  A  B              A  B   G                 D    D    D
G|-----------------|-----------------|-----------------|-----------------|
D|-----------------|-----------------|-----------------|-----------------|
A|-----------------|-----------------|---------------34|-5----5----5-----|
E|---5--0--7--5--7-|-7-7-7-7-7--5--7-|-3---3-3-3-3333--|-----------------|

Verse 2:

   E     D       Db                    E     D       Db      B
G|-----------------|-----------------|-----------------|-----------------|
D|-----------------|-----------------|-----------------|-----------------|
A|-------555-----44|-4---------------|-------555-----44|-4---------------|
E|-0---------------|-----------------|-0---------------|-----74-75-76-77-|

   E     D       Db                    E     D       Db      B
G|-----------------|-----------------|-----------------|-----------------|
D|-----------------|-----------------|-----------------|-----------------|
A|-------555-----44|-4---------------|-------555-----44|-4---------------|
E|-0---------------|-----------------|-0---------------|-----74-75-76-77-|

Chorus 2:

   B          A  B              A   B     A       G  A              G  A
G|-----------------|-----------------|-----------------|-----------------|
D|-----------------|-----------------|-----------------|-----------------|
A|-----------------|-----------------|-----------------|-----------------|
E|-7-7-7-7-7--5--7-|-7-7-7-7-7--5--7-|-7-5-5-5-5--3--5-|-5-5-5-5-5--3--5-|

     A  E  B  A  B              A  B   G                 D    A    D
G|-----------------|-----------------|-----------------|---------5/7-----|
D|-----------------|-----------------|-------------x---|-----/7----------|
A|-----------------|-----------------|-----------5-----|-5---------------|
E|---5--0--7--5--7-|-7-7-7-7-7--5--7-|-3---3-3-3-------|-----------------|

Guitar Solo:

  E      D       Db        E   E   E   E     D       Db        E A  E  A
G|-----------------|-----------------|-----------------|-----------------|
D|-----------------|-----------------|-----------------|-----------------|
A|-------555-----44|-4---------777---|-------555-----44|-4---------------|
E|-0---------------|-------000-----00|-0---------------|-------0-5--0--5-|

  E      D       Db        E   E   E   E     D       A         E A  E  A
G|-----------------|-----------------|-----------------|-----------------|
D|-----------------|-----------------|-----------------|-----------------|
A|-------555-----44|-4---------777---|-------555-------|-----------------|
E|-0---------------|-------000-----00|-0-------------55|-5-----0-5--0--5-|

  E      D       Db        E   E   E   E     D       Db        E A  E  A
G|-----------------|-----------------|-----------------|-----------------|
D|-----------------|-----------------|-----------------|-----------------|
A|-------555-----44|-4---------777---|-------555-----44|-4---------------|
E|-0---------------|-------000-----00|-0---------------|-------0-5--0--5-|

  E      D       Db        E   E   E   E     D       Db        E A  E A
G|-----------------|-----------------|-----------------|-----------------|
D|-----------------|-----------------|-----------------|-----------------|
A|-------555-----44|-4---------777---|-------555-----44|-4---------------|
E|-0---------------|-------000-----00|-0---------------|-------0-5--0--5-|

Chorus 3:


G|-----------------|-----------------|-----------------|-----------------|
D|-----------------|-----------------|-----------------|-----------------|
A|-----------------|-----------------|-----------------|-----------------|
E|---5--0--7-7-7-7-|-7-7-7-7-7-7-5-7-|-0-5-5-5-5--3--5-|-5-5-5-5-5--3--5-|

     A  E  B  A  B              A  B   G                 D    A    D
G|-----------------|-----------------|-----------------|----------/7-----|
D|-----------------|-----------------|-----------------|-----/7----------|
A|-----------------|-----------------|---------------34|-5---------------|
E|---5--0--7--5--7-|-7-7-7-7-7--5--7-|-3---3-3-3-3333--|-----------------|

Bridge:

                     E      B          E         G     B
G|-----------------|-----------------|-----------------------------------|
D|-----------------|-----------------|-----------------------------------|
A|-----------------|-----------------|---5-4-2-4-------------------------|
E|-----------------|-0------75-76-77-|-0---------3-----7-5---7-6---7-7---|

   E         G     B                   A         C     E
G|-----------------------------------|-----------------------------------|
D|-----------------------------------|---5-4-2-4-------------------------|
A|---5-4-2-4-------------------------|-----------3-----7-5---7-6---7-7---|
E|-0---------3-----7-5---7-6---7-7---|-5---------------------------------|

   A         C     E                   E        G
G|-----------------------------------|-----------------------------------|
D|---5-4-2-4-------------------------|-----------------------------------|
A|-----------3-----7-5---7-6---7-7---|---5-4-2-4-------------------------|
E|-5---------------------------------|-0---------3-----7-5---7-6---7-7---|

   E         G     B
G|-----------------------------------|
D|-----------------------------------|
A|---5-4-2-4-------------------------|
E|-0---------3-----7-5---7-6---7-7---|

Chorus 4:

   B          A  B              A   B     A       G  A              G  A
G|-----------------|-----------------|-----------------|-----------------|
D|-----------------|-----------------|-----------------|-----------------|
A|-----------------|-----------------|-----------------|-----------------|
E|-7-7-7-7-7--5--7-|-7-7-7-7-7--5--7-|---5-5-5-5--3--5-|-5-5-5-5-5--3--5-|

     A  E  B  A  B              A  B   G                 D    D    D
G|-----------------|-----------------|-----------------|-----------------|
D|-----------------|-----------------|-----------------|-----------------|
A|-----------------|-----------------|---------------34|-5----5----5-----|
E|---5--0--7--5--7-|-7-7-7-7-7--5--7-|-3---3-3-3-3333--|-----------------|

   A
G|-----------------|-----------------|
D|-----------------|-----------------|
A|-----------------|-----------------|
E|-5---------------|-----------------|

Outro:

  E      D       Db        E   E   E   E     D       Db        E A  E  A
G|-----------------|-----------------|-----------------|-----------------|
D|-----------------|-----------------|-----------------|-----------------|
A|-------555-----44|-4---------777---|-------555-----44|-4---------------|
E|-0---------------|-------000-----00|-0---------------|-------0-5--0--5-|

  E      D       Db        E   E   E   E     D       Db        E A  E  A
G|-----------------|-----------------|-----------------|-----------------|
D|-----------------|-----------------|-----------------|-----------------|
A|-------555-----44|-4---------777---|-------555-----44|-4---------------|
E|-0---------------|-------000-----00|-0---------------|-------0-5--0--5-|

  E      D       Db        E           E     D       Db        E A  E  A
G|-----------------|---------------78|-9---------------|-----------------|
D|-----------------|-----------789---|-----------------|-----------------|
A|-------555-----44|-4---------------|-------555-----44|-4---------------|
E|-0---------------|-------000-------|-----------------|-------0-5--0--5-|

  E      D       Db        E   E   E   E     D       Db        E A  E  A
G|-----------------|-----------------|-----------------|-----------------|
D|-----------------|-----------------|-----------------|-----------------|
A|-------555-----44|-4---------777---|-------555-----44|-4---------------|
E|-0---------------|-------000-----00|-0---------------|-------0-5--0--5-|


Back in black
I hit the sack
I've been to long I'm glad to be back
Yes I'm, let loose
From the noose
That's kept me hangin' about
I keep lookin' at the sky
Cause it's gettin' me high
Forget the hearse cause I'll never die
I got nine lives
Cat's eyes
Abusin' every one of them and runnin' wild

Cause I'm back
Yes, I'm back
Well, I'm back
Yes, I'm back
Well I'm back, back
Well I'm back in black
Yes I'm back in black

Back in the back
Of a Cadillac
Number one with a bullet, I'm a power pack
Yes I'm, in a bang
With a gang
They got to catch me if they want me to hang
Cause I'm back on the track
And I'm beating the flack
Nobody's gonna get me on another rap
So look at me now
I'm just makin' my pay
Don't try to push your luck, just get outta my way

Cause I'm back
Yes, I'm back
Well, I'm back
Yes, I'm back
Well I'm back, back
Well I'm back in black
Yes I'm back in black

Cause I'm back
Yes, I'm back
Well, I'm back
Yes, I'm back
Well I'm back, back
Well I'm back in black
Yes I'm back in black

Well I'm back
Yes, I'm back
Well, I'm back
Yes, I'm back
Well I'm back, back
Well I'm back in black
Yes I'm back in black


================================================
7. YOU SHOOK ME ALL NIGHT LONG
================================================

Rest through Intro, Verse 1


Pre Chorus 1 1: (First bar begins at 0:53)

                                   D
G|-----------------|-----------------|-----------------|-----------------|
D|-----------------|-----------------|-----------------|-----------------|
A|-----------------|---------------5-|---5-5-5-5-5-5-5-|-5-5-5-5-5-5-5\--|
E|-----------------|-----------------|-----------------|-----------------|


Chorus 1:

   G          A B C        B       D             A B C         B
G|-----------------|-----------------|-----------------|-----------------|
D|-----------------|-----------------|-----------------|-----------------|
A|-----------0-2-3-|-------2-------5-|-----5-----0-2-3-|-------2---------|
E|-3---3-3-3-------|-----------------|-----------------|---------------0-|

   G          A B C        B       D             A B C         B
G|-----------------|-----------------|-----------------|-----------------|
D|-----------------|-----------------|-----------------|-----------------|
A|-----------0-2-3-|-------2-------5-|-----5-----0-2-3-|-------2-----2-2-|
E|-3---3-----------|-----------------|-----------------|-----------------|

Verse 2:

   G             C       G   C   G D                 G       D   G   D
G|-----------------|-----------------|-----------------|-----------------|
D|-----------------|-----------------|---------------5-|---5-----5-------|
A|---------------3-|---3-----3-----5-|-----------------|-----5-------5---|
E|-3---------------|-----3-------3---|-----------------|-----------------|

   G             C       G   C   G D                 G       D   G   D
G|-----------------|-----------------|-----------------|-----------------|
D|-----------------|-----------------|---------------5-|---5-----5-------|
A|---------------3-|---3-----3-----5-|-----------------|-----5-------5---|
E|-3---------------|-----3-------3---|-----------------|-----------------|

   G             C       G   C   G D                 G           G   D
G|-----------------|-----------------|-----------------|-----------------|
D|-----------------|-----------------|---------------5-|---5-4---5-------|
A|---------------3-|---3-----3-----5-|-----------------|-------------5---|
E|-3---------------|-----3-------3---|-----------------|-----------------|

   G             C       G   C   G D
G|-----------------|-----------------|-----------------|-----------------|
D|-----------------|-----------------|-----------------|-----------------|
A|---------------3-|---3-----3-----5-|---5-5-5-5-5-5-5-|-5-5-5-5-5-5-5-5-|
E|-3---------------|-----3-------3---|-----------------|-----------------|

Chorus 2:

   G          A B C        B       D             A B C         B
G|-----------------|-----------------|-----------------|-----------------|
D|-----------------|-----------------|-----------------|-----------------|
A|-----------0-2-3-|-------2-------5-|-----5-----0-2-3-|-------2---------|
E|-3---3-----------|-----------------|-----------------|---------------0-|

   G          A B C        B       D             A B C         B
G|-----------------|-----------------|-----------------|-----------------|
D|-----------------|-----------------|-----------------|-----------------|
A|-----------0-2-3-|-------2-------5-|-----5-----0-2-3-|-------2---2-2---|
E|-3---3-----------|-----------------|-----------------|---------------0-|

   G          A B C        B       D             A B C         B
G|-----------------|-----------------|-----------------|-----------------|
D|-----------------|-----------------|-----------------|-----------------|
A|-----------0-2-3-|-------2-------5-|-----5-----0-2-3-|-------2---------|
E|-3---3-----------|-----------------|-----------------|---------------0-|

   G          A B C        B       D
G|-----------------|-----------------|-----------------|-----------------|
D|-----------------|-----------------|-----------------|-----------------|
A|-----------0-2-3-|-------2-------5-|---5-5-5-5-5-5-5-|-5-5-5-5-5-5-5-5-|
E|-3---3-----------|-----------------|-----------------|-----------------|

   D
G|-----------------|-----------------|
D|-----------------|-----------------|
A|-5-5-5-5-5-5-5-5-|-5-5-5-5-5-5-5\--|
E|-----------------|-----------------|

Guitar Solo:

   G          A B C        B       D             A B C         B       G
G|-----------------|-----------------|-----------------|-----------------|
D|-----------------|-----------------|-----------------|-----------------|
A|-----------0-2-3-|-------2-------5-|-----------0-2-3-|-------2---------|
E|-3---------------|-----------------|-----------------|---------------3-|

             A B C         B       D                 C         B
G|-----------------|-----------------|-----------------|-----------------|
D|-----------------|-----------------|-----------------|-----------------|
A|-----------0-2-3-|-------2-------5-|-5-5-5-5-5-5-2-3-|---3-3-2---2-2---|
E|-----------------|-----------------|-----------------|---------------0-|

   G          A B C        B       D             A B C         B
G|-----------------|-----------------|-----------------|-----------------|
D|-----------------|-----------------|-----------------|-----------------|
A|-----------0-2-3-|-------2-------5-|-----5-----0-2-3-|-------2---------|
E|-3---3-----------|-----------------|-----------------|---------------0-|

   G          A B C        B       D             A B C         B
G|-----------------|-----------------|-----------------|-----------------|
D|-----------------|-----------------|-----------------|-----------------|
A|-----------0-2-3-|-------2-------5-|-----5-----0-2-3-|-------2---------|
E|-3---3-----------|-----------------|-----------------|-----------0-1-2-|

Outro Chorus:

   G          A B C        B       D             A B C         B
G|-----------------|-----------------|-----------------|-----------------|
D|-----------------|-----------------|-----------------|-----------------|
A|-----------0-2-3-|-------2-------5-|-5---5-----0-2-3-|-------2---------|
E|-3---3-----------|-----------------|-----------------|-----------0-1-2-|

   G          A B C        B       D             A B C         B
G|-----------------|-----------------|-----------------|-----------------|
D|-----------------|-----------------|-----------------|-----------------|
A|-----------0-2-3-|-------2-------5-|-5-5-5-5-5-0-2-3-|-------2---------|
E|-3---3-----------|-----------------|-----------------|-----------0-1-0-|

   G         A B C         B       D             A B C         B
G|-----------------|-----------------|-----------------|-----------------|
D|-----------------|-----------------|-----------------|-----------------|
A|-----------0-2-3-|-------2-------5-|-----5-----0-2-3-|-------2---------|
E|-3---3-----------|-----------------|-----------------|---------------0-|

   G          A B C        B       D
G|-----------------|-----------------|-----------------|-----------------|
D|-----------------|-----------------|-----------------|-----------------|
A|-----------0-2-3-|-------2-------5-|-5-5-5-5-5-0-2-3-|-------2-------5-|
E|-3---3-----------|-----------------|-----------------|-----------------|

   D         A B C         B        D
G|-----------------|-----------------|-----------------|-----------------|
D|-----------------|-----------------|-----------------|-----------------|
A|-5-5-5-5-5-0-2-3-|-------2-------5-|---5-5-5-5-5-5-5-|-5-5-5-5-5-5-5-5-|
E|-----------------|-----------------|-----------------|-----------------|

   D
G|-----------------|
D|-----------------|
A|-5-5-5-5-5-5-5-5-|
E|-----------------|


She was a fast machine
She kept her motor clean
She was the best damn woman that I ever seen
She had the sightless eyes
Tellin' me no lies
Knockin' me out with those American thighs
Takin' more than her share
Had me fighting for air
She told me to come but I was already there
'Cause the walls start shaking
The earth was quakin'
My mind was achin'
And we were makin' it and you -

Shook me all night long
Yeah you shook me all night long

Workin' double time
On the seduction line
She was one of a kind, she's just mine all mine
Wanted no applause
Just another course
Made a meal out of me, and come back for more
Had to cool me down
To take another round
Now I'm back in the ring to take another swing
'Cause the walls was shaking
The earth was quakin'
My mind was achin'
And we were makin' it and you -

Shook me all night long
Yeah you shook me all night long
Knocked me out and then you
Shook me all night long
Then you were shakin' and you
Shook me all night loooong
Yeah you shook me
Well, you took me

You really took me and you
Shook me all night long
Oaaaaaahhhhhh you shook me all night long
Yeah yeah you
Shook me all... night... long
Ya really took me and you
Shook me all night long

Yeah you shook me, yeah you shook me
All night loooong!


================================================
8. HAVE A DRINK ON ME
================================================

Intro: (0:14, fade in)

   A                                   A     D           C A C A
G|-----------------|-----------------|-----------------|-----------------|
D|-----------------|-----------------|-----------------|-----------------|
A|-----------------|-----------------|-------5---------|-----------------|
E|-5-5-5-5-5-5-5-5-|-5-5-5-5-5-5-5-5-|-5---------------|-8-5-8-5-----3-4-|

   A                                                     C A C A
G|-----------------|-----------------|-----------------|-----------------|
D|-----------------|-----------------|-----------------|-----------------|
A|-----------------|-----------------|-----------------|-----------------|
E|-5-5-5-5-5-5-5-5-|-5-5-5-5-5-5-5-5-|-5-5-5-5-5-5-5-5-|-8-5-8-5-5-5-5-5-|

   A                                   A     D           C A C A
G|-----------------|-----------------|-----------------|-----------------|
D|-----------------|-----------------|-----------------|-----------------|
A|-----------------|-----------------|-------5---------|-----------------|
E|-5-5-5-5-5-5-5-5-|-5-5-5-5-5-5-5-5-|-5---------------|-8-5-8-5---5-5-3-|

Verse 1:

   A                                   G
G|-----------------|-----------------|-----------------|-----------------|
D|-----------------|-----------------|-----------------|-----------------|
A|-----------------|-----------------|-----------------|-----------------|
E|-5-5-5-5-5-5-5-5-|-5-5-5-5-5-5-5-5-|-3-3-3-3-3-3-3-3-|-3-3-3-3-3-3-3-3-|

   D                                   A
G|-----------------|-----------------|-----------------|-----------------|
D|-----------------|-----------------|-----------------|-----------------|
A|-5-5-5-5-5-5-5-5-|-5-5-5-5-5-5-5-5-|-----------------|-----------------|
E|-----------------|-----------------|-5-5-5-5-5-5-5-5-|-5-5-5-5-5-5-5-5-|

   A                                   G
G|-----------------|-----------------|-----------------|-----------------|
D|-----------------|-----------------|-----------------|-----------------|
A|-----------------|-----------------|-----------------|-----------------|
E|-5-5-5-5-5-5-5-5-|-5-5-5-5-5-5-5-5-|-3-3-3-3-3-3-3-3-|-3-3-3-3-3-3-3-3-|

   D                                   D                 F     G
G|-----------------|-----------------|-----------------|-----------------|
D|-----------------|-----------------|-----------------|-----------------|
A|-5-5-5-5-5-5-5-5-|-5-5-5-5-5-5-5-5-|-5----45---5-5---|-----------------|
E|-----------------|-----------------|-----------------|-1---1-3-----3---|

Chorus 1:

   A                                                     C A C A
G|-----------------|-----------------|-----------------|-----------------|
D|-----------------|-----------------|-----------------|-----------------|
A|-----------------|-----------------|-----------------|-----------------|
E|-5-5-5-5-5-5-5-5-|-5-5-5-5-5-5-5-5-|-5-5-5-5-5-5-5-5-|-8-5-8-5---2-3-4-|

   A                                   A     D           C A C A
G|-----------------|-----------------|-----------------|-----------------|
D|-----------------|-----------------|-----------------|-----------------|
A|-----------------|-----------------|-------5---------|-----------------|
E|-5-5-5-5-5-5-5-5-|-5-5-5-5-5-5-5-5-|-5---------------|-8-5-8-5---5-5-5-|

Pre Verse 2:

   A
G|-----------------|-----------------|-----------------|-----------------|
D|-----------------|-----------------|-----------------|-----------------|
A|-----------------|-----------------|-----------------|-----------------|
E|-5-5-5-5-5-5-5-5-|-5-5-5-5-5-5-5-5-|-5-5-5-5-5-5-5-5-|-5-5-5-5-5-5-5-5-|

Verse 2:

   A                                   G
G|-----------------|-----------------|-----------------|-----------------|
D|-----------------|-----------------|-----------------|-----------------|
A|-----------------|-----------------|-----------------|-----------------|
E|-5-5-5-5-5-5-5-5-|-5-5-5-5-5-5-5-5-|-3-3-3-3-3-3-3-3-|-3-3-3-3-3-3-3-3-|

   D                                   A
G|-----------------|-----------------|-----------------|-----------------|
D|-----------------|-----------------|-----------------|-----------------|
A|-5-5-5-5-5-5-5-5-|-5-5-5-5-5-5-5-5-|-----------------|-----------------|
E|-----------------|-----------------|-5-5-5-5-5-5-5-5-|-5-5-5-5-5-5-5-5-|

   A                                   G
G|-----------------|-----------------|-----------------|-----------------|
D|-----------------|-----------------|-----------------|-----------------|
A|-----------------|-----------------|-----------------|-----------------|
E|-5-5-5-3-5-5-5-5-|-5-5-5-5-5-5-5-5-|-3-3-3-3-3-3-3-3-|-3-3-3-3-3-3-3-3-|

   D                                   D                 F     G
G|-----------------|-----------------|-----------------|-----------------|
D|-----------------|-----------------|-----------------|-3---3-5---5-5\--|
A|-5-5-5-5-5-5-5-5-|-5-5-5-5-5-5-5-5-|-5-----5---5-5-5-|-----------------|
E|-----------------|-----------------|-----------------|-----------------|

Chorus 2:

   A                                                     C A C A
G|-----------------|-----------------|-----------------|-----------------|
D|-----------------|-----------------|-----------------|-----------------|
A|-----------------|-----------------|-----------------|-----------------|
E|-5-5-5-5-5-5-5-5-|-5-5-5-5-5-5-5-5-|-5-5-5-5-5-5-5-5-|-8-5-8-5---5-5-4-|

   A                                   A     D           C A C A
G|-----------------|-----------------|-----------------|-----------------|
D|-----------------|-----------------|-----------------|-----------------|
A|-----------------|-----------------|-------5---------|-----------------|
E|-5-5-5-5-5-5-5-5-|-5-5-5-5-5-5-5-5-|-5---------------|-8-5-8-5---5-5-5-|

Guitar Solo:

   E     A           E     A           E     A       G         D
G|-----------------|-----------------|-----------------|-----------------|
D|-----------------|-----------------|-----------------|-----------------|
A|-----------------|-----------------|-----------------|-------5-5-5-5-5-|
E|-0-0-0-5-5-5-5-5-|-0-0-0-5-5-5-5-5-|-0-0-3-5-5-5-5-3-|-3-3-3-----------|

   E     A           E       A         E     A           G E G E
G|-----------------|-----------------|-----------------|-----------------|
D|-----------------|-----------------|-----------------|-----------------|
A|-7\--------------|-----------------|-----------------|-----------------|
E|---0-0-5-5-5-5-5-|-0-0-3-5-5-5-5-5-|-0-0-3-5-5-5-5-5-|-3-0-3-0-0-0-0-0-|

   E     A           E     A           E     A           G
G|-----------------|-----------------|-----------------|-----------------|
D|-----------------|-----------------|-----------------|-----------------|
A|-----------------|-----------------|-----------------|-----------------|
E|-0-0-3-5-5-5-5-5-|-0-0-3-5-5-5-5-5-|-0-0-3-5-5-5-5---|-3-3-3-3-3-3-3-3-|

   G             D
G|-----------------|-----------------|-----------------|
D|-----------------|-----------------|-----------------|
A|---------------5-|-5-5-5-5-5-5-5-5-|-5-5-5-5-5-5-5-5-|
E|-3-3-3-3-3-3-3---|-----------------|-----------------|

Bridge:

   A
G|-----------------|-----------------|-----------------|-----------------|
D|-----------------|-----------------|-----------------|-----------------|
A|-----------------|-----------------|-----------------|-----------------|
E|-5---------------|-----------------|-5-----5-----5---|-----------------|

   A
G|-----------------|-----------------|-----------------|-----------------|
D|-----------------|-----------------|-----------------|-----------------|
A|-----------------|-----------------|-----------------|-----------------|
E|-5-----5-----5---|-----------------|-5-----5-----5---|-5-5-5-5-5-5-5-5-|

   A
G|-----------------|-----------------|
D|-----------------|-----------------|
A|-----------------|-----------------|
E|-5-5-5-5-5-5-5-5-|-5-5-5-5-5-5-5-5-|

Interlude:

   A     D           G     D     A           D           G     D     A
G|-----------------|-----------------|-----------------|-----------------|
D|-----------------|-----------------|-----------------|-----------------|
A|-------5-5-5-5-5-|-------5-5-5-----|-------5-5-5-5-5-|-------5-5-5-----|
E|-5-5-5-----------|-3-3-3-------5-5-|-5-5-5-----------|-3-3-3-------5-5-|

   A     D           G     D     A           D           G     D
G|-----------------|-----------------|-----------------|-----------------|
D|-----------------|-----------------|-----------------|-----------------|
A|-------5-5-5-5-5-|-------5-5-5-----|-------5-5-5-5-5-|-------5-5-------|
E|-5-5-5-----------|-3-3-3-------5-5-|-5-5-5-----------|-3-3-3-----2-3-4-|

   A     D           G     D                 D           G     D
G|-----------------|-----------------|-----------------|-----------------|
D|-----------------|-----------------|-----------------|-----------------|
A|-------5-5-5-5-5-|-------5-5-------|-------5-5-5-5-5-|-------5-5-------|
E|-5-5-5-----------|-3-3-3-----2-3-4-|-5-5-5-----------|-3-3-3-----2-3-4-|

  A     D            G     D
G|-----------------|-----------------|
D|-----------------|-----------------|
A|-------5-5-5-5-5-|-------5-5-5-5-5-|
E|-5-5-5-----------|-3-3-3-----------|

Outro:

   A      D                            A      D
G|-----------------|-----------------|----------------|-----------------|
D|-----------------|-----------------|----------------|-----------------|
A|--------5--------|-----------------|--------5-------|-----------------|
E|-5---------------|-----------------|-5--------------|-----------------|

   A       D
G|-----------------|-----------------|----------------|-----------------|
D|-----------------|-----------------|----------------|-----------------|
A|--------5--------|-----------------|----------------|-----------------|
E|-5---------------|-----------------|----------------|-----------------|

   A
G|-----------------|-----------------|----------------|
D|-----------------|-----------------|----------------|
A|-----------------|-----------------|----------------|
E|-5-5-5-5---5-----|-----------------|----------------|


Whiskey, gin and brandy
With a glass I'm pretty handy
I'm trying to walk a straight line
On sour mash and cheap wine
So join me for a drink boys
We're gonna make a big noise
So don't worry about tomorrow
Take it today
Forget about the tip
We'll get hell to pay

Have a drink on me
Have a drink on me
Yeah
Have a drink on me
Have a drink on me
On me
Come on

Dizzy, drunk and fightin'
On tequila white lightnin'
My glass is getting shorter
On whiskey, ice and water
So come on and have a good time
And get blinded out of your mind
So don't worry about tomorrow
Take it today
Forget about the cheque
We'll get hell to pay

Have a drink on me
Have a drink on me
Have a drink on me
Have a drink on me

Get stoned

Have a drink on me
Have a drink on me
Yeah
Have a drink on me
Come on
Oooh

Gonna roll around
Gonna hit the ground
Take another swing
Have another drink
Gonna drink it dry
Gonna get me high
Come on over boys
Make a noise


Whiskey, gin and brandy
With a glass I'm pretty handy
I'm trying to walk a straight line
On sour mash and cheap wine
So join me for a drink boys
We're gonna make a big noise
So don't worry about tomorrow
Take it today
Forget about the tip
We'll get hell to pay
Have a drink on me
Have a drink on me
Yeah
Have a drink on me
Have a drink on me
On me
Come on
Dizzy, drunk and fightin'
On tequila white lightnin'
My glass is getting shorter
On whiskey, ice and water
So come on and have a good time
And get blinded out of your mind
So don't worry about tomorrow
Take it today
Forget about the cheque
We'll get hell to pay
Have a drink on me
Have a drink on me
Have a drink on me
Have a drink on me
On me
Get stoned
Have a drink on me
Have a drink on me
Yeah
Have a drink on me
Come on
Oooh
Gonna roll around
Gonna hit the ground
Take another swing
Have another drink
Gonna drink it dry
Gonna get me high
Come on all the boys
Make a noise


================================================
9. SHAKE A LEG
================================================

Intro:

   E                               A     E                             E
G|-----------------|-----------------|-----------------|-----------------|
D|-----------------|-----------------|-----------------|-----------------|
A|-----------------|-----------------|-----------------|-----------------|
E|-0---------------|---------------5-|---0-------------|---------------0-|

                                   A     E                             E
G|-----------------|-----------------|-----------------|-----------------|
D|-----------------|-----------------|-----------------|-----------------|
A|-----------------|-----------------|-----------------|-----------------|
E|-----------------|---------------5-|---0-------------|---------------0-|

                                   A     E                             E
G|-----------------|-----------------|-----------------|-----------------|
D|-----------------|-----------------|-----------------|-----------------|
A|-----------------|-----------------|-----------------|-----------------|
E|-----------------|---------------5-|---0-------------|---------------0-|

                                   A     E           A     E           E
G|-----------------|-----------------|-----------------|-----------------|
D|-----------------|-----------------|-----------------|-----------------|
A|-----------------|-----------------|-----------------|-----------------|
E|-----------------|---------------5-|---0-----------5-|---0-----------0-|

                                   A     E           A     E           E
G|-----------------|-----------------|-----------------|-----------------|
D|-----------------|-----------------|-----------------|-----------------|
A|-----------------|-----------------|-----------------|-----------------|
E|-----------------|---------------5-|---0-----------5-|---0-----------0-|

                                   E     G E         E     G E          E
G|-----------------|-----------------|-----------------|-----------------|
D|-----------------|-----------------|-----------------|-----------------|
A|-----------------|-----------------|-----------------|-----------------|
E|-----------------|---------------0-|---3-0---------0-|---3-0---------0-|

     G E
G|-----------------|-----------------|
D|-----------------|-----------------|
A|-----------------|-----------------|
E|---3-0-----------|---------------0-|

Pre Verse 1:

     G E      B         Db    D    E      G E    B         Cb    D
G|-----------------|-----------------|-----------------|-----------------|
D|-----------------|-----------------|-----------------|-----------------|
A|-----------2-2---|---4-4---5-5-----|-----------2-2---|---4-4---5-5-----|
E|---3-0--/4-------|/4-----4-------0-|---3-0--/4-------|/4-----4-------0-|

     G E      B         Db    D    E      G E    B         Cb    D
G|-----------------|-----------------|-----------------|-----------------|
D|-----------------|-----------------|-----------------|-----------------|
A|-----------2-2---|---4-4---5-5-----|-----------2-2---|---4-4---5-5-----|
E|---3-0--/4-------|/4-----4-------0-|---3-0--/4-------|/4-----4-------0-|

Verse 1:

      E                                  G E     B         Cb    D
G|-----------------|-----------------|-----------------|-----------------|
D|-----------------|-----------------|-----------------|-----------------|
A|-----------------|-----------------|-----------2-2---|---4-4---5-5-----|
E|---0-0-0-0-0-0-0-|-0-0-0-0-0-0-0-0-|---3-0--/4-------|/4-----4-------0-|

      E                                  G E     B         Cb    D
G|-----------------|-----------------|-----------------|-----------------|
D|-----------------|-----------------|-----------------|-----------------|
A|-----------------|-----------------|-----------2-2---|---4-4---5-5-----|
E|---0-0-0-0-0-0-0-|-0-0-0-0-0-0-0-0-|---3-0--/4-------|/4-----4-------5-|

      A                                  C A     E         F#    G
G|-----------------|-----------------|-----------------|-----------------|
D|-----------------|-----------------|-----------2-2---|---4-4---5-5-----|
A|-----------------|-----------------|---3----/4-------|/4-----4---------|
E|---5-5-5-5-5-5-5-|-5-5-5-5-5-5-5-5-|-----5-----------|---------------0-|

      E                                  G E     B         Cb    D
G|-----------------|-----------------|-----------------|-----------------|
D|-----------------|-----------------|-----------------|-----------------|
A|-----------------|-----------------|-----------2-2---|---4-4---5-5---7-|
E|---0-0-0-0-0-0-0-|-0-0-0-0-0-0-0-0-|---3-0--/4-------|/4-----4---------|

Chorus 1:

     E B                           E     B                             E
G|-----------------|-----------------|-----------------|-----------------|
D|-----------------|-----------------|-----------------|-----------------|
A|---7-------------|---------------7-|-----------------|---------------7-|
E|-----7-7-7-7-7-7-|-7-7-7-7-7-7-7---|---7-7-7-7-7-7-7-|-7-7-7-7-7-7-7---|

     E B                           E       B   E   B E     E B   E   B E
G|-----------------|-----------------|-----------------|-----------------|
D|-----------------|-----------------|-----------------|-----------------|
A|---7-------------|---------------7-|---7-----7-----7-|---7-----7-------|
E|-----7-7-7-7-7-7-|-7-7-7-7-7-7-7---|-----7-------7---|-----7-------7-0-|

Pre Verse 2:

     G E      B         Db    D    E      G E    B         Cb    D
G|-----------------|-----------------|-----------------|-----------------|
D|-----------------|-----------------|-----------------|-----------------|
A|-----------2-2---|---4-4---5-5-----|-----------2-2---|---4-4---5-5-----|
E|---3-0--/4-------|/4-----4-------0-|---3-0--/4-------|/4-----4-------0-|

Verse 2:

      E                                  G E     B         Cb    D
G|-----------------|-----------------|-----------------|-----------------|
D|-----------------|-----------------|-----------------|-----------------|
A|-----------------|-----------------|-----------2-2---|---4-4---5-5-----|
E|---0-0-0-0-0-0-0-|-0-0-0-0-0-0-0-0-|---3-0--/4-------|/4-----4-------0-|

      E                                  G E     B         Cb    D
G|-----------------|-----------------|-----------------|-----------------|
D|-----------------|-----------------|-----------------|-----------------|
A|-----------------|-----------------|-----------2-2---|---4-4---5-5-----|
E|---0-0-0-0-0-0-0-|-0-0-0-0-0-0-0-0-|---3-0--/4-------|/4-----4-------5-|

      A                                  C A     E         F#    G
G|-----------------|-----------------|-----------------|-----------------|
D|-----------------|-----------------|-----------2-2---|---4-4---5-4-2---|
A|-----------------|-----------------|---3----/4-------|/4-----4---------|
E|---5-5-5-5-5-5-5-|-5-5-5-5-5-5-5-5-|-----5-----------|---------------0-|

      E                                  G E     B         Cb    D
G|-----------------|-----------------|-----------------|-----------------|
D|-----------------|-----------------|-----------------|-----------------|
A|-----------------|-----------------|-----------2-2---|---4-4---5-5-----|
E|---0-0-0-0-0-0-0-|-0-0-0-0-0-0-0-0-|---3-0--/4-------|/4-----4-------0-|

Chorus 2:

     E B                           E       B                           E
G|-----------------|-----------------|-----------------|-----------------|
D|-----------------|-----------------|-----------------|-----------------|
A|---7-------------|---------------7-|-----------------|-----------5-6-7-|
E|-----7-7-7-7-7-7-|-7-7-7-7-7-7-7---|---5-7-7-7-7-7-7-|-7-7-7-6-7-------|

     E B                           E       B   E   B E     E B   E   B E
G|-----------------|-----------------|-----------------|-----------------|
D|-----------------|-----------------|-----------------|-----------------|
A|---7-------------|---------------7-|---7-----7-----7-|---7-----7-----7-|
E|-----7-7-7-7-7-7-|-7-7-7-7-7-7-7---|-----7-------7---|-----7-------7---|

Bridge:

                                   E                                   E
G|-----------------|-----------------|-----------------|-----------------|
D|-----------------|-----------------|-----------------|-----------------|
A|-----------------|-----------------|-----------------|-----------------|
E|-----------------|---------------0-|-----------------|---------------0-|

     G E   G E   G   E   G E G
G|-----------------|-----------------|
D|-----------------|-----------------|
A|-----------------|-----------------|
E|---3-0-0-3-0-0-3-|-0-0-3-0-3-0-4-5-|

Guitar Solo:

      A                                              D         G
G|-----------------|-----------------|-----------------|-----------------|
D|-----------------|-----------------|-----------------|-----------------|
A|-----------------|-----------------|---------------5-|-----------------|
E|---5-5-5-5-5-5-5-|-5-5-5-5-5-5-5-5-|-5-5-5-5-5-5-5---|-------3---2-0-5-|

      A                                              D         G
G|-----------------|-----------------|-----------------|-----------------|
D|-----------------|-----------------|-----------------|-------5---4-2---|
A|-----------------|-----------------|-----------3-4-5-|-----------------|
E|---5-5-5-5-5-5-5-|-5-5-5-5-5-5-5-5-|-5-5-5-5-5-------|---------------5-|

      A                                              D         G
G|-----------------|-----------------|-----------------|-----------------|
D|-----------------|-----------------|-----------------|-----------------|
A|-----------------|-----------------|---------------5-|-----------------|
E|---5-5-5-5-5-5-5-|-5-5-5-5-5-5-5-5-|-5-5-5-5-5-5-5---|-------3---2-0-5-|

      A                                              D         G
G|-----------------|-----------------|-----------------|-----------------|
D|-----------------|-----------------|-----------------|-----------------|
A|-----------------|-----------------|---------------5-|-----------------|
E|---5-5-5-5-5-5-5-|-5-5-5-5-5-5-5-5-|-5-5-5-5-5-5-5---|-------3---2-0-0-|

   E B                            E      B                             E
G|-----------------|-----------------|-----------------|-----------------|
D|-----------------|-----------------|-----------------|-----------------|
A|---7-------------|---------------7-|-----------------|---------------7-|
E|-----7-7-7-7-7-7-|-7-7-7-7-7-7-7---|---7-7-7-7-7-7-7-|-7-7-7-7-7-7-7---|

     E B                           E       B       B E     E B   E   B E
G|-----------------|-----------------|-----------------|-----------------|
D|-----------------|-----------------|-----------------|-----------------|
A|---7-------------|---------------7-|---7-----------7-|---7-----7-----7-|
E|-----7-7-7-7-7-7-|-7-7-7-7-7-7-7---|-----7-7-7-7-7---|-----7-------7---|

Verse 3:

                                         G E     B         Cb    D
G|-----------------|-----------------|-----------------|-----------------|
D|-----------------|-----------------|-----------------|-----------------|
A|-----------------|-----------------|-----------2-2---|---4-4---5-5-----|
E|-----------------|---------------0-|---3-0--/4-------|/4-----4-------0-|

      E                                  G E     B         Cb    D
G|-----------------|-----------------|-----------------|-----------------|
D|-----------------|-----------------|-----------------|-----------------|
A|-----------------|-----------------|-----------2-2---|---4-4---5-------|
E|---0-0-0-0-0-0-0-|-0-0-0-0-0-0-0-0-|---3-0--/4-------|/4-----4---5-3-5-|

      A                                  C A     E         F#    G
G|-----------------|-----------------|-----------------|-----------------|
D|-----------------|-----------------|-----------2-2---|---4-4---5-5-----|
A|-----------------|-----------------|---3----/4-------|/4-----4---------|
E|---5-5-5-5-5-5-5-|-5-5-5-5-5-5-5-5-|-----5-----------|---------------0-|

      E                                  G E     B         Cb    D
G|-----------------|-----------------|-----------------|-----------------|
D|-----------------|-----------------|-----------------|-----------------|
A|-----------------|-----------------|-----------2-2---|---4-4---5-5-----|
E|---0-0-0-0-0-0-0-|-0-0-0-0-0-0-0-0-|---3-0--/4-------|/4-----4-------0-|

Chorus 3:

     E B                           E     B                             E
G|-----------------|-----------------|-----------------|-----------------|
D|-----------------|-----------------|-----------------|-----------------|
A|---7-------------|---------------7-|-----------------|---------------7-|
E|-----7-7-7-7-7-7-|-7-7-7-7-7-7-7---|---7-7-7-7-7-7-7-|-7-7-7-7-7-7-7---|

     E B                           E     B                             E
G|-----------------|-----------------|-----------------|-----------------|
D|-----------------|-----------------|-----------------|-----------------|
A|---7-------------|---------------7-|-----------------|---------------7-|
E|-----7-7-7-7-7-7-|-7-7-7-7-7-7-7---|---7-7-7-7-7-7-7-|-7-7-7-7-7-7-7---|

     E B                           E     B                             E
G|-----------------|-----------------|-----------------|-----------------|
D|-----------------|-----------------|-----------------|-----------------|
A|---7-------------|---------------7-|-----------------|---------------7-|
E|-----7-7-7-7-7-7-|-7-7-7-7-7-7-7---|---7-7-7-7-7-7-7-|-7-7-7-7-7-7-7---|

     E B                           E       B   E   B E     E B   E   B E
G|-----------------|-----------------|-----------------|-----------------|
D|-----------------|-----------------|-----------------|-----------------|
A|---7-------------|---------------7-|---7-----7-----7-|---7-----7-----7-|
E|-----7-7-7-7-7-7-|-7-7-7-7-7-7-7---|-----7-------7---|-----7-------7---|

Outro:

      E B  E    B E       B  E    B    E
G|-----------------|-----------------|-----------------|-----------------|
D|-----------------|-----------------|-----------------|-----------------|
A|---7-----7-----7-|---7-----7-------|-----------------|-----------------|
E|-----7-------7---|-----7-------7---|-0---------------|-----------------|


Idle juvenile on the street, on the street
Who is kicking everything with his feet, with his feet
Fightin' on the wrong side of the law, of the law
Don't kick, don't fight, don't sleep at night
And shake a leg
Shake a leg
Shake a leg
Shake it, yeah

Keepin' outta trouble with eyes
In the back of my face
Kickin' ass in the class, and they tell me
You're a damn disgrace
They tell me what they think, but they stink
And I really don't care
Got a mind of my own, move on, get out of my hair

Shake a leg
Shake your head
Shake a leg
Wake the dead
Shake a leg
Get stuck it
Shake a leg
Shake a leg

Magazines, wet dreams
Dirty women on machines for me
BIg licks, skin flicks, tricky dicks
Are my chemistry
Goin' against the grain, tryin' to
keep me sane, with you
So stop your grinnin' and drop your
linen for me

Shake a leg
Shake your head
Shake a leg
Wake the dead
Shake a leg
Get stuck it
Shake a leg
Shake a leg


================================================
10. ROCK 'N' ROLL AIN'T NOISE POLLUTION
================================================

Intro: (0:45)

   B Db  D      Db     B   G    E      B  Db D               G E
G|-----------------|-----------------|-----------------|-----------------|
D|-----------------|-----------------|-----------------|-----------------|
A|---4---5-----4---|-4---------------|---4---5-----4---|-4---------------|
E|-7-------------7-|---7-5-3---0-0-0-|-7-------------7-|-----3-0-0-0-0-0-|

   B Db  D      Db     B   G    E      B  Db D               G
G|-----------------|-----------------|-----------------|-----------------|
D|-----------------|-----------------|-----------------|-----------------|
A|---4---5-----4---|-4---------------|---4---5-----4---|-6b--------------|
E|-7-------------7-|---7-5-3---0-0-0-|-7---------------|-----3-0-------0-|

Verse 1:

   E              A                    E                 A
G|-----------------|-----------------|-----------------|-----------------|
D|-----------------|-----------------|-----------------|-----------------|
A|-----------------|---------------7-|-----------------|-----------------|
E|-0-0-0-0-0-0-0-5-|---5-5-5-5-5/8---|-0-0-0-0-0-2-3-5-|-5-5-5-5-5-5-5-5-|

   E             A                     E                 A
G|-----------------|-----------------|-----------------|-----------------|
D|-----------------|-----------------|-----------------|-----------------|
A|-----------------|-----------------|-----------------|-----------------|
E|-0-0-0-0-0-0-0-5-|-5-5-5-5-5-5-5/8-|-0-0-0-0-0-2-3-5-|-5-5-5-5-5-5-5-5-|

Pre Chorus/Chorus 1:

   E     D           B     E           E     D
G|-----------------|-----------------|-----------------|-----------------|
D|-----------------|-----------------|-----------------|-----5---4---2---|
A|-7-----5---------|-------7---------|-7-----5---------|-------5---5---5-|
E|-----------------|-7---------------|---------------5-|-5-5-------------|

           B     D             B   G     E     B     D            E  G E
G|-----------------|-----------------|-----------------|-----------------|
D|-----------------|-----------------|-----------------|-----------------|
A|-55---44---4---5-|-----4---4-------|-----------4---5-|-----4---7-------|
E|---55----7-------|-------7---7-5-3-|---0-0-0-7-------|-------7---7-3-0-|

           B     D                 G      E    B     D           E B G E
G|-----------------|-----------------|-----------------|-----------------|
D|-----------------|-----------------|-----------------|-----------------|
A|-----------4---5-|-----4---4-------|-----------4---5-|-----4---7-------|
E|---------7-------|-------7-----5-3-|---0-0-0-7-------|-------7---7-3-0-|

G|-----------------|
D|-----------------|
A|-----------------|
E|-----------------|

Verse 2:

   E              A                    E                 A
G|-----------------|-----------------|-----------------|-----------------|
D|-----------------|-----------------|-----------------|-----------------|
A|-----------------|-----------------|-----------------|-------------567-|
E|-0-0-0-0-0-0-0-5-|-5-5-5-5-5-5-5-7-|-0-0-0-0-0-0-0-5-|-5-5-5-5-5-5-----|

   E             A                     E                 A
G|-----------------|-----------------|-----------------|-----------------|
D|-----------------|-----------------|-----------------|-----------------|
A|-----------------|-----------------|-----------------|-----------5-5-x-|
E|-0-0-0-0-0-0-0-5-|-5-5-5-5-5-5-5/8-|-0-0-0-0-0-2-3-5-|-5-5-5-5-5-------|

Pre Chorus/Chorus 2:

   E     D           B     E           E     D           A
G|-----------------|-----------------|-----------------|-----------------|
D|-----------------|-----------------|-----------------|-----------------|
A|-7-----5---------|-------7---------|-7-----5---------|-----------------|
E|-----------------|-7---------------|-----------------|-5-5-5-5-5-5-5-5-|

           B     D                 G     E     B     D            E  G E
G|-----------------|-----------------|-----------------|-----------------|
D|-----57----------|-----------------|-----------------|-----------------|
A|---57------4---5-|-----4---4-------|-----------4---5-|-----4---7-------|
E|-5-------7-------|-------------5-3-|---0-0-0-7-------|-------7---7-3-0-|

           B     D                 G      E    B     D           E     E
G|-----------------|-----------------|-----------------|-----------------|
D|-----------------|-----------------|-----------------|-----------------|
A|-----------4---5-|-----4---4-------|-----------4--45-|-----4---7----57-|
E|---------7-------|-------7-----5-3-|---0-0-0-7-------|-------7---5-0---|

     E
G|-----------------|
D|-----------------|
A|---7-7-7-7-7-7\x-|
E|-----------------|

Guitar Solo/Chorus 3:

   E             A                     E             A
G|-----------------|-----------------|-----------------|-----------------|
D|-----------------|-----5---4-------|-----------------|-----------------|
A|-----------------|-------5---x-567-|-----------------|-----------4-4-6-|
E|-0-0-0-0-0-0-0-5-|-5-5-------------|-0-0-0-0-2-2-3-5-|---5-5-5-5-------|

   E             A                     E             A
G|-----------------|-----------------|-----------------|-----------------|
D|-----------------|-----------------|-----------------|-----------------|
A|-7-7-7-7-7-7-7---|-----------------|-----------------|-----------4-5-6-|
E|---------------5-|-5-5-5-5-5-5-5-3-|-0-0-0-0-0-2-3-5-|-5-5-5-5-5-------|

   E     D           B     E           E     D
G|-----------------|-----------------|-----------------|-----------------|
D|-----------------|-----------------|-----------------|-----------------|
A|-7-----5---------|-------7---------|-7-----5---------|-----4---5---6---|
E|-----------------|-7---------------|-----------------|-5-5-------------|

           B Db  D                 G     E     B     D
G|-----------------|-----------------|-----------------|-----------------|
D|-4---6-----------|-----------------|-----------------|-----------------|
A|-----------4---5-|-----4---4-------|-----------4---5-|-----4---4----/7-|
E|---------7-------|-------7---7-5-3-|---0-0-0-7-------|-------7-----3---|

           B  Db D                 G     E      B Db D                 G
G|-----------------|-----------------|-----------------|-----------------|
D|-----------------|-----------------|-----------------|-----------------|
A|-----75----4---5-|-----4---4-------|-----------4---5-|-----4---4-------|
E|-------7-7-------|-------7---7-5-3-|---0-0-0-7-------|-------7---7-5-3-|

Outro:

   E        B        D             G      E     B        D           G E
G|-----------------|-----------------|-----------------|-----------------|
D|-----------------|-----------------|-----------------|-----------------|
A|---------------4-|-5---4---4-------|---------------4-|-5---4---4-------|
E|-0-0-0-0-7---7---|-------7-----5-3-|---0-0-0-7---7---|-------7-----3-0-|

Gruadually slow down

   E        B        D             G      E     B        D       A
G|-----------------|-----------------|-----------------|-----------------|
D|-----------------|-----------------|-----------------|-----------------|
A|---------------4-|-5---4---4-------|---------------4-|-5---------------|
E|-0-0-0-0-7---7---|-------7-----5-3-|---0-0-0-7---7---|---------5-------|

   G              E
G|------------------|
D|------------------|
A|------------------|
E|-3b-------------0-|


(All right)
Hey there, all you middle men
Throw away your fancy clothes
And while you're out there sittin' on a fence
So get off your ass and come down here
'Cause rock 'n' roll ain't no riddle man
To me it makes good, good sense
Good sense
Ow
Oooh yeah

Heavy decibels are playing on my guitar
We got vibrations coming up from the floor
We're just listening to the rock that's giving too much noise
Are you deaf, you wanna hear some more

We're just talkin' about the future
Forget about the past
It'll always be with us
It's never gonna die, never gonna die

Rock 'n' roll ain't noise pollution
Rock 'n' roll ain't gonna die
Rock 'n' roll ain't noise pollution
Rock 'n' roll it will survive
Yes it will, ha ha ha ha

I took a look inside your bedroom door
You looked so good lying on your bed
Well, I asked you if you wanted any rhythm and love
You said you wanna rock 'n' roll instead

We're just talkin' about the future
Forget about the past
It'll always be with us
It's never gonna die, never gonna die

Rock 'n' roll ain't noise pollution
Rock 'n' roll ain't gonna die
Rock 'n' roll ain't no pollution
Rock 'n' roll is just rock 'n' roll
Oh Rock 'n' roll ain't noise pollution
Rock 'n' roll ain't gonna die
Rock 'n' roll ain't no pollution
Rock 'n' roll ain't gonna die
Rock 'n' roll ain't no pollution
Rock 'n' roll it'll never die
Rock 'n' roll ain't no pollution
Rock 'n' roll
Oh
Rock 'n' roll is just rock 'n' roll
comments
We did not receive enough feedback on this tab! Please rate:
print report bad tab
1 2 3 4 5
2 comments total.
0 reply
bassjoe72 wrote on January 11 2011, 06:25 pm

dont know about anything past the first bar of first song--but that shit is wrong man! look at version with 5 star and all of the comments, learn it --then try to work up 2 songs, ect. to an album and quit waisting all of our time

0 reply
playinbass1432 wrote on August 22 2011, 05:21 pm

hahaha wut

I want to post or [tab]
guest
You may want to rate the tab now too:
select rating
Please do not post tabs as comments. Select "correction" instead!