Oops, an error
Loading. Please wait.

Back In Black Tab

version 6
17,737 views 15 this week
3 commentsread comments
1 2 3 4 5
accurate
x 11
add to favorites
launch autoscroll
font size
0
reset
how to read this tab
guitar tuner
Tab Pro tools
  • play this tab
  • loop segment
  • change instrument
  • show fretboard
  • metronome
×
Best way to learn
"Back In Black"
Autoscroll
slow
fast
+/-
esc
set tempo
stop
---------------------------------------------------------------------------
                         BACK IN BLACK - AC/DC
---------------------------------------------------------------------------

Tabbed by: UNDERHANDER


This song ia tabbed al the way through so you can play along with the cd:

Intro:
e|-------------------3p0----------|----------------------------------------|
B|----3-3-3-------------3p0-------|----3-3-3-------------------------------|
G|----2-2-2--2-2-2---------2^p0---|----2-2-2--2-2-2------------------------|
D|-2--0-0-0--2-2-2--------------2-|-2--0-0-0--2-2-2------------------------|
A|-2---------0-0-0----------------|-2---------0-0-0--2----2-0--2-1--2-2----|
E|-0------------------------------|-0-------------------4------------------|

e|-------------------3p0----------|----------------------------------------|
B|----3-3-3-------------3p0-------|----3-3-3-------------------------------|
G|----2-2-2--2-2-2---------2^p0---|----2-2-2--2-2-2------------------------|
D|-2--0-0-0--2-2-2--------------2-|-2--0-0-0--2-2-2------------------------|
A|-2---------0-0-0----------------|-2---------0-0-0--2----2-0--2-1--2-2----|
E|-0------------------------------|-0-------------------4------------------|

e|-------------------3p0----------|----------------------------------------|
B|----3-3-3-------------3p0-------|----3-3-3-------------------------------|
G|----2-2-2--2-2-2---------2^p0---|----2-2-2--2-2-2------------------------|
D|-2--0-0-0--2-2-2--------------2-|-2--0-0-0--2-2-2------------------------|
A|-2---------0-0-0----------------|-2---------0-0-0--2----2-0--2-1--2-2----|
E|-0------------------------------|-0-------------------4------------------|

e|-------------------3p0----------|----------------------------------------|
B|----3-3-3-------------3p0-------|----3-3-3-------------------------------|
G|----2-2-2--2-2-2---------2^p0---|----2-2-2--2-2-2------------------------|
D|-2--0-0-0--2-2-2--------------2-|-2--0-0-0--2-2-2------------------------|
A|-2---------0-0-0----------------|-2---------0-0-0--2----2-0--2-1--2-2----|
E|-0------------------------------|-0-------------------4------------------|

Chorus:
e|----------------|-----------------|------------------|-------------------|
B|----------------|-----------------|--3--3------------|--3--3-------------|
G|----------------|-----------------|--0--2--2------2--|--0--2--2------2---|
D|-2-----4--4--4--|--2-----4--4--4--|--0--0--2------0--|--0--0--2------2---|
A|-0--2--2--0--2--|--0--2--2--0--2--|--2-----0------0--|--3-----0------0---|
E|----0-----------|-----0-----------|--3--------3^-----|--3--------3^------|

e|----------------|-----------------|--------------------------------------|
B|----------------|-----------------|--3--3--3---3--3--3--3---3--3---3-3-3-|
G|----------------|-----------------|--0--0--0---0--0--0--0---0--0---2-2-2-|
D|-2-----4--4--4--|--2-----4--4--4--|--0--0--0---0--0--0--0---0--0---0-0-0-|
A|-0--2--2--0--2--|--0--2--2--0--2--|--2--2--2---2--2--2--2---2--2---0-0-0-|
E|----0-----------|-----0-----------|--3--3--3---3--3--3--3---3--3---------|

Verse:
e|-------------------3p0----------|----------------------------------------|
B|----3-3-3-------------3p0-------|----3-3-3-------------------------------|
G|----2-2-2--2-2-2---------2^p0---|----2-2-2--2-2-2------------------------|
D|-2--0-0-0--2-2-2--------------2-|-2--0-0-0--2-2-2------------------------|
A|-2---------0-0-0----------------|-2---------0-0-0--2----2-0--2-1--2-2----|
E|-0------------------------------|-0-------------------4------------------|

e|-------------------3p0----------|----------------------------------------|
B|----3-3-3-------------3p0-------|----3-3-3-------------------------------|
G|----2-2-2--2-2-2---------2^p0---|----2-2-2--2-2-2------------------------|
D|-2--0-0-0--2-2-2--------------2-|-2--0-0-0--2-2-2------------------------|
A|-2---------0-0-0----------------|-2---------0-0-0--2----2-0--2-1--2-2----|
E|-0------------------------------|-0-------------------4------------------|

Chorus:
e|----------------|-----------------|------------------|-------------------|
B|----------------|-----------------|--3--3------------|--3--3-------------|
G|----------------|-----------------|--0--2--2------2--|--0--2--2------2---|
D|-2-----4--4--4--|--2-----4--4--4--|--0--0--2------0--|--0--0--2------2---|
A|-0--2--2--0--2--|--0--2--2--0--2--|--2-----0------0--|--3-----0------0---|
E|----0-----------|-----0-----------|--3--------3^-----|--3--------3^------|

e|----------------|-----------------|--------------------------------------|
B|----------------|-----------------|--3--3--3---3--3--3--3---3--3---3-3-3-|
G|----------------|-----------------|--0--0--0---0--0--0--0---0--0---2-2-2-|
D|-2-----4--4--4--|--2-----4--4--4--|--0--0--0---0--0--0--0---0--0---0-0-0-|
A|-0--2--2--0--2--|--0--2--2--0--2--|--2--2--2---2--2--2--2---2--2---0-0-0-|
E|----0-----------|-----0-----------|--3--3--3---3--3--3--3---3--3---------|

Solo:
e|-------------------------------------------------------------------------|
B|-------------------------------------------------------------------------|
G|--------------------------------0h3p2p0h2--------------------------------|
D|----------------------------0h2-----------2------------------------------|
A|-----7~~~-----5~~~----4~~~----------------------7~~~-----5~~~----4~~~----|
E|--0--------0--------0------------------------0--------0--------0---------|

e|-------------------------------------------|
B|----------------8------8h10h11p10p8h10p8---|
G|-7-7-7-7-7-7^/9---9-9~---------------------|
D|-0-0-0-0-0---------------------------------|
A|-------------------------------------------|
E|-------------------------------------------|

e|---------------------------------------------|
B|--------------------15-15--14----------------|
G|--9-9~-12----12-14^----14^----14^(14)-12-14~-|
D|-----------14--------------------------------|
A|---------------------------------------------|
E|---------------------------------------------|

e|------------------------------------12-12-------------|
B|--------------------------15-----12-------15-15^------|
G|-12-------12----14----14^----14^----------------------|
D|----14-14----14----14---------------------------------|
A|------------------------------------------------------|
E|------------------------------------------------------|

e|-12--------------------------------------------------|
B|----15p12--------------15----------------------------|
G|----------15p14p12h14^----14^---14^-12h14----12-14~--|
D|------------------------------------------14---------|
A|-----------------------------------------------------|
E|-----------------------------------------------------|

e|---------------------------------------------------12------------------|
B|----------12----14----12-----15----------------15^----15p12------------|
G|----------12----14----12-14^----14^-12-14-----------------14-15-12-14^-|
D|-12-14-14----14----14-----------------------14-------------------------|
A|-----------------------------------------------------------------------|
E|-----------------------------------------------------------------------|

e|-0----------0----------0----0-0--------12-------|
B|-0----------0----------0----0-0-----12----15^---|
G|-9-9-7-9~~--7-6-6-7~~--6-4--6-6--13-------------|
D|------------------------------------------------|
A|------------------------------------------------|
E|------------------------------------------------|

e|-0--------------0----------0--------------------|
B|-0---------------------------------14^-14-12----|
G|-9-9-7-9~~--7-6---7~~--6-4---6~~---14--14-12----|
D|---------------------------------------------14-|
A|------------------------------------------------|
E|------------------------------------------------|

Chorus:
e|----------------|-----------------|------------------|-------------------|
B|----------------|-----------------|--3--3------------|--3--3-------------|
G|----------------|-----------------|--0--2--2------2--|--0--2--2------2---|
D|-2-----4--4--4--|--2-----4--4--4--|--0--0--2------0--|--0--0--2------2---|
A|-0--2--2--0--2--|--0--2--2--0--2--|--2-----0------0--|--3-----0------0---|
E|----0-----------|-----0-----------|--3--------3^-----|--3--------3^------|

e|----------------|-----------------|--------------------------------------|
B|----------------|-----------------|--3--3--3---3--3--3--3---3--3---3-3-3-|
G|----------------|-----------------|--0--0--0---0--0--0--0---0--0---2-2-2-|
D|-2-----4--4--4--|--2-----4--4--4--|--0--0--0---0--0--0--0---0--0---0-0-0-|
A|-0--2--2--0--2--|--0--2--2--0--2--|--2--2--2---2--2--2--2---2--2---0-0-0-|
E|----0-----------|-----0-----------|--3--3--3---3--3--3--3---3--3---------|

Bridge:
e|------------------------|-------------------------|
B|------------------------|-------------------------|
G|------------------------|-------------------------|
D|------------------------|-------------------------|
A|--5-4-2-4---2-0-2-1-2-2-|-5-4-2-4---2-0-2-1-2-2---|
E|----------3-------------|---------3---------------|

e|------------------------|-------------------------|
B|------------------------|-------------------------|
G|------------------------|-------------------------|
D|------------------------|-------------------------|
A|--5-4-2-4---2-0-2-1-2-2-|-5-4-2-4---2-0-2-1-2-2---|
E|----------3-------------|---------3---------------|

e|------------------------|-------------------------|
B|------------------------|-------------------------|
G|------------------------|-------------------------|
D|--5-4-2-4---2-0-2-1-2-2-|-5-4-2-4---2-0-2-1-2-2---|
A|----------3-------------|---------3---------------|
E|------------------------|-------------------------|

e|------------------------|-------------------------|
B|------------------------|-------------------------|
G|------------------------|-------------------------|
D|------------------------|-------------------------|
A|--5-4-2-4---2-0-2-1-2-2-|-5-4-2-4---2-0-2-1-2-2---|
E|----------3-------------|---------3---------------|

Chorus:
e|----------------|-----------------|------------------|-------------------|
B|----------------|-----------------|--3--3------------|--3--3-------------|
G|----------------|-----------------|--0--2--2------2--|--0--2--2------2---|
D|-2-----4--4--4--|--2-----4--4--4--|--0--0--2------0--|--0--0--2------2---|
A|-0--2--2--0--2--|--0--2--2--0--2--|--2-----0------0--|--3-----0------0---|
E|----0-----------|-----0-----------|--3--------3^-----|--3--------3^------|

e|----------------|-----------------|--------------------------------------|
B|----------------|-----------------|--3--3--3---3--3--3--3---3--3---3-3-3-|
G|----------------|-----------------|--0--0--0---0--0--0--0---0--0---2-2-2-|
D|-2-----4--4--4--|--2-----4--4--4--|--0--0--0---0--0--0--0---0--0---0-0-0-|
A|-0--2--2--0--2--|--0--2--2--0--2--|--2--2--2---2--2--2--2---2--2---0-0-0-|
E|----0-----------|-----0-----------|--3--3--3---3--3--3--3---3--3---------|

e|-------10---------------|
B|--3----13^--------------|
G|--2--------14^-(14~~)---|
D|--0---------------------|
A|--0---------------------|
E|------------------------|



ENJOY
comments
print report bad tab
3 comments total.
0 reply
jaredguay wrote on August 11 2004, 12:00 am

I know for a fact that this tab is wrong. You could play it like this, but the notes are not of the correct strings and there are techniques added/missing. You're better off checking out the other versions...

0 reply
mcl guitar wrote on August 15 2006, 05:24 pm

its ok but i agree wit jared he is right

0 reply
Dark Valer wrote on June 13 2009, 11:41 pm

The intro sounds good but i have to question the rest especially in the chorus.

I want to post or [tab]
guest
You may want to rate the tab now too:
select rating
Please do not post tabs as comments. Select "correction" instead!