Oops, an error
Loading. Please wait.

Baptism By Fire tab

version 2
version 2

Whole song

Interactive

by AC/DC
487 views 6 this week
no commentswrite comment
1 2 3 4 5
1 last vote to show rating
add to favorites
×
Save as Personal and add changes to this tab that will be seen only by you. Learn more ›
×
You can save this tab as Personal to edit and correct it or add notes. All changes will be seen only by you. Learn more »
launch autoscroll
font size
0
reset
how to read this tab
guitar tuner
edit
Autoscroll
slow
fast
+/-
esc
set tempo
stop
Baptism by fire - AC/DC
Album: Rock or Bust
Tabbed by moist_seagull

[Intro]

e|---------------------------------------------------------------------------------------------|
B|---------------------------------------------------------------------------------------------|
G|---------------------------------------------------------------------------------------------|x2
D|---------------------------------------------------------------------------------------------|
A|--------------5~------------0-----0--1-----------------------5~------------------------------|  
E|----0--3--/7------7--0--5~-----3--------3--0-------0--3--/7------7--0--5~--9--8--7--0--3--0--|

That continues and Angus plays this overdub:

e|---------------------------------------------------------------------------------------------|
B|---------------------------------------------------------------------------------------------|
G|--------------7~---------------------------------------------7~------------6--5--4-----------|x2
D|-------5--/9------9--x--7~--7--5--7--8--5-------------5--/9------9--x--7~--------------5-----|
A|----7--------------------------------------7-------7--------------------------------7-----7--|  
E|---------------------------------------------------------------------------------------------|


[Verse 1]

e|--------------------------------0--0-------------------------------------------------------------------|
B|--------------------------------0--0-------------------------------------------------------------------|
G|--------------2--2----------------------------2--2-----------------------7~----------------------------|x2
D|----2---------2--2----2-----------------------2--2----2-----------5--/9------9--x--7~--7--5--7--8--5---|
A|----2---------0--0----2-----------------------0--0----2--------7--------------------------------------7| 
E|----0--------------3--0----------------------------3--0------------------------------------------------|

e|----------------------------------------------------------------------------|
B|----------------------------------------------------------------------------|
G|--------------2--2------------------------7~--------------------------------|
D|----2---------2--2----2------------5--/9------9--x--7~--7--5--7--8--5-------|
A|----2---------0--0----2---------7--------------------------------------7----|
E|----0--------------3--0-----------------------------------------------------|


[Pre-Chorus 1]

e|-----------------------------------------------------------------------------3---|
B|-----------------------------------------------------------------------------3---|
G|----2----2--------------2----2--------------4--------2----------4---4--------0---|
D|----2----2----2---------2----2----2---------4--------2---2------4---4--------x---|
A|----0----0----2---------0----0----2---------2--------0---2------2---2--------2---|
E|--------------0-------------------0----------------------0-------------------3---|


[Chorus 1]

e|------------------------------------------------------------------------------------------|
B|------------------------------------------------------------------------------------------|
G|------------------------------------------------------------------------------------------|x2
D|------------------------------------------------------------------------------------------|
A|--------------5~------------0-----0--1--------------------5~------------------------------|  
E|----0--3--/7------7--0--5~-----3--------3--0----0--3--/7------7--0--5~--9--8--7--0--3--0--|

e|-----------------------------------3-------|
B|-----------------------------------3-------|
G|----4--------2---------4--4--------0-------|
D|----4--------2----2----4--4--------x-------|
A|----2--------0----2----2--2--------2-------|
E|------------------0----------------3-------|

e|---------------------------------------------------------------------------------------------|
B|---------------------------------------------------------------------------------------------|
G|--------------7~---------------------------------------------7~------------6--5--4-----------|
D|-------5--/9------9--x--7~--7--5--7--8--5-------------5--/9------9--x--7~--------------5-----|
A|----7--------------------------------------7-------7--------------------------------7-----7--|
E|---------------------------------------------------------------------------------------------|


[Verse 2]

e|--------------------------------0--0-------------------------------------------------------------------|
B|--------------------------------0--0-------------------------------------------------------------------|
G|--------------2--2----------------------------2--2-----------------------7~----------------------------|
D|----2---------2--2----2-----------------------2--2----2-----------5--/9------9--x--7~--7--5--7--8--5---|
A|----2---------0--0----2-----------------------0--0----2--------7--------------------------------------7| 
E|----0--------------3--0----------------------------3--0------------------------------------------------|

e|--------------------------------0--0---|
B|--------------------------------0--0---|
G|--------------2--2---------------------|
D|----2---------2--2----2----------------|
A|----2---------0--0----2----------------|
E|----0--------------3--0----------------|


[Pre-chorus 2]

e|-----------------------------------------------------------------------------3---|
B|-----------------------------------------------------------------------------3---|
G|----2----2--------------2----2--------------4--------2----------4---4--------0---|
D|----2----2----2---------2----2----2---------4--------2---2------4---4--------x---|
A|----0----0----2---------0----0----2---------2--------0---2------2---2--------2---|
E|--------------0-------------------0----------------------0-------------------3---|


[Chorus 2]

e|------------------------------------------------------------------------------------------|
B|------------------------------------------------------------------------------------------|
G|------------------------------------------------------------------------------------------|x3
D|------------------------------------------------------------------------------------------|
A|--------------5~------------0-----0--1--------------------5~------------------------------| 
E|----0--3--/7------7--0--5~-----3--------3--0----0--3--/7------7--0--5~--9--8--7--0--3--0--|


[Pre-solo]

e|-----------------------------------3-------|
B|-----------------------------------3-------|
G|----4--------2---------4--4--------0-------|
D|----4--------2----2----4--4--------x-------|
A|----2--------0----2----2--2--------2-------|
E|------------------0----------------3-------|

e|-----------------------|
B|-----------------------|
G|-----------------------|x3
D|----7----7----7--9~~---|
A|-----------------------|
E|-----------------------|

e|-----------------------|
B|-----------------------|
G|-----------------------|
D|----/12----------------| 
A|-----------------------|
E|-----------------------|


[Solo]

e|---------------------------------------------------------------------------------------|
B|---------------------------------------------------------------------------------------|
G|--------------------------------------------------------------------12-12-12-----------|
D|----12b14-------12--11----------------------------------12----14-------------14-14-14--|
A|------------------------14--12---------------------------------------------------------|
E|--------------------------------15p12h15--12~------------------------------------------|

e|----------------------------------------------------------------------------------------------|
B|----------------------------------------------------------------------------------------------|
G|--------------------------------------------------------------------------------12--12--------|
D|--------------------------------------------------------14--12------12--14--------------14~---|
A|----12b14--------12b14--------12b14r12p10-----------------------14----------------------------|
E|-------------------------------------------12~------------------------------------------------|


[Final chorus/Outro solo]

This part was hard to work out and probably isn't completely correct, but it's what I play and it sounds
pretty close.

e|-----------------------------------------------------------------10------10------12--12~-|
B|----15------14------12--10-----------------------10------10--12------12------12----------|
G|----------------------------12--9~--------9--12------12----------------------------------|
D|-----------------------------------------------------------------------------------------|
A|-----------------------------------------------------------------------------------------|
E|-----------------------------------------------------------------------------------------|

e|----17b19-----------17p15-----------------12-------------------------------|
B|---------------------------17--17~------------15p12--15b17r15p12-----------|
G|------------------------------------------------------------------14p12----|
D|---------------------------------------------------------------------------|
A|---------------------------------------------------------------------------|
E|---------------------------------------------------------------------------|

e|----12----------------------------------------|
B|--------15p12--15b17r15p12--15b17r15p12-------|
G|----------------------------------------------|
D|-----------------------------------------14~--|
A|----------------------------------------------|
E|----------------------------------------------|

e|---------------------------------------------------------------------------------------------------------|
B|----/12---------------15b17--15pb7--15pb7--15pb7--15pb17--17n-----------15n----14n--12n------------------|
G|----/12----------------------------------------------------------------------------------14pb16p12-------|
D|----------------------------------------------------------------------------------------------------14~--|
A|---------------------------------------------------------------------------------------------------------|
E|---------------------------------------------------------------------------------------------------------|

e|--------------------------------------------------------|
B|--------------------------------------------------------|
G|----7b9--------9p7-----7--------------------------------|
D|--------------------9-----9p7---------------------------|
A|-------------------------------10p7------7h10p7------7--|
E|-------------------------------------10----------10-----|

e|------------------------------------------|
B|----8~-----------------10p8--10--10b12----|
G|-------------9~---------------------------|
D|------------------------------------------|
A|------------------------------------------|
E|------------------------------------------|


************************************
| x   Dead note
| h   Hammer-on
| p   Pull-off
| r   Release
| b   Bend
| pb  Pre-bend
| /   Slide up
| \   Slide down
| ~   Vibrato
| n   Tremolo

************************************

            
            
Suggest correction
Creating personal tab
Creating personal tab
You can edit any tab online and save it as your Personal.

You can edit, replace or remove any tab part or add personal notes – all changes will be seen only by you.

Personal tabs can be accessed anytime from any device, even offline.
Learn more »
Give kudos to tab author, rate the tab!
1 2 3 4 5
comments
print report bad tab
guest
You may want to rate the tab now too:
select rating
Wanna post a correction for this tab? Suggest correction