Oops, an error
Loading. Please wait.

Beating Around The Bush tab

version 3
version 3

Whole song

Interactive

by AC/DC
4,902 views 24 this week
no commentswrite comment
1 2 3 4 5
x 6
add to favorites
×
Save as Personal and add changes to this tab that will be seen only by you. Learn more ›
×
You can save this tab as Personal to edit and correct it or add notes. All changes will be seen only by you. Learn more »
launch autoscroll
font size
0
reset
how to read this tab
guitar tuner
edit
Autoscroll
slow
fast
+/-
esc
set tempo
stop
-------------------------------------------------------------------------------
                             BEATING AROUND THE BUSH - Ac/Dc
-------------------------------------------------------------------------------
Tabbed by: Andrew Wynnyk
E-mail: andrewwynnyk@gmail.com

Tuning: Half-Step Down (D#-G#-C#-F#-A#-D# / Eb-Ab-Db-Gb-Bb-Eb)

------
Riffs:
------

Intro:

D#|-------------|
A#|-------------|
F#|-------------|
C#|-----------0-|
G#|-----0-1-2---|
D#|-0-3---------|

Riff 1:

Part 1:                            Part 2:
D#|-------------------------------|-------------------------|
A#|-------------------------------|-------------------------|
F#|-------------------------------|-------------------------|
C#|-----------0-----------------2-|-----------0-----------2-|
G#|-----0-1-2---2-1-0-----------2-|-----0-1-2---2-1-0-----2-|
D#|-0-3---------------3-0-3-0-0-0-|-0-3---------------3-0-0-|

Riff 2:

D#|---------------------------|
A#|---------------------------|
F#|---------7-----------------|
C#|-----2---7-7-7-----------2-|
G#|-----2---5-7-7-----------2-|
D#|-0-3-0-----5-5-3-0-3-0-0-0-|

Riff 3:

Notes in brackets are optional. This riff can be played many different ways, 
so try and find something that suits your style. I believe this is how Ac/Dc 
plays it, please correct me if I'm wrong.

D#|----------------------------------------------------|
A#|----------------------------------------------------|
F#|--------------------7-----7-----7-------------------|
C#|-----2-----2-----2--7-----7-----7--7-----7-----7--2-|
G#|-----2-----2-----2--5-----5-----5--7-----7-----7--2-|
D#|-0-3-0-(0)-0-(0)-0----(5)---(5)----5-(5)-5-(5)-5--0-|

Solo Rhythm:

D#|-----------------------------------------------------------------------|
A#|-----------------------------------------------------------------------|
F#|------------------7---------------------------------7------------------|
C#|-----7--7-7-7-7-7-7---7--7-7-7-7-7-7---7--7-7-7-7-7-7---7--7-7-7-7-7-7-|
G#|-----7--7-7-7-7-7-5---7--7-7-7-7-7-7---7--7-7-7-7-7-5---7--7-7-7-7-7-7-|
D#|-0-3-5--5-5-5-5-5---5-5--5-5-5-5-5-5-5-5--5-5-5-5-5---5-5--5-5-5-5-5-5-|


D#|---------------------------------------------------------------------|
A#|---------------------------------------------------------------------|
F#|---4--4-4-4-4-4-----4--4-4-4-4-4-4---4--4-4-4-4-4-----4--4-4-4-4-4-4-|
C#|---4--4-4-4-4-4-2---4--4-4-4-4-4-4---4--4-4-4-4-4-2---4--4-4-4-4-4-4-|
G#|-0-2--2-2-2-2-2-2-0-2--2-2-2-2-2-2-0-2--2-2-2-2-2-2-0-2--2-2-2-2-2-2-|
D#|----------------0---------------------------------0------------------|

D#|-------------------------------------------------|
A#|-------------------------------------------------|
F#|---4---4---4-------------4---4---4--7---7---7----|
C#|---4---4---4--7---7---7--4---4---4--7---7---7--2-|
G#|-0-2-0-2-0-2--7---7---7--2-0-2-0-2--5---5---5--2-|
D#|--------------5-5-5-5-5---------------5---5----0-|

Pre-Solo: ?

Lead Solo 1: ?

Lead Solo 2: ?

-----------
Song Order:
-----------

Guitar 1: Intro x2

Guitar 1: Riff 1 x2

Guitar 1&2: Riff 1 x2

Guitar 1&2: Riff 2 x8

Guitar 1&2: Riff 3 x1

Guitar 1: Riff 1 Part 1 x1

Guitar 1: Riff 2 x8 | Guitar 2: Pre-Solo

Guitar 1&2: Riff 3 x1

Guitar 1: Riff 1 Part 1 x1

Guitar 1: Solo Rhythm | Guitar 2: Lead Solo 1

Guitar 1&2: Riff 2 x8

Guitar 1&2: Riff 3 x1

Guitar 1: Riff 1 Part 1 x1

Guitar 1: Solo Rhythm | Guitar 2: Lead Solo 2
Suggest correction
Creating personal tab
Creating personal tab
You can edit any tab online and save it as your Personal.

You can edit, replace or remove any tab part or add personal notes – all changes will be seen only by you.

Personal tabs can be accessed anytime from any device, even offline.
Learn more »
comments
print report bad tab
guest
You may want to rate the tab now too:
select rating
Wanna post a correction for this tab? Suggest correction