Oops, an error
Loading. Please wait.
We have an official Big Gun tab made by UG professional guitarists. Check out the tab »
×
by AC/DC
114,096 views 42 this week
9 commentsread comments
1 2 3 4 5
x 9
add to favorites
×
Save as Personal and add changes to this tab that will be seen only by you. Learn more ›
×
You can save this tab as Personal to edit and correct it or add notes. All changes will be seen only by you. Learn more »
launch autoscroll
font size
0
reset
how to read this tab
guitar tuner
backing track
0:00
0:00
edit
Autoscroll
slow
fast
+/-
esc
set tempo
stop
Author
Unregistered
AC/DC: Big Gun
==============

 [Riff A]  2x in the intro
e|-GUITAR 1=>-3---0----0--0-------|-----------3---0---0------------|
B|------------------3--------3--0-|-----------------3-----3\-------|
G|--------------------------------|--------------------------------|
D|--2--2--<==GUITAR 2-------------|--2--2--------------------------|
A|--2--2--------------------------|--2--2--------------------------|
E|--0--0--------------------------|--0--0--------------------------|

 [Riff B]  (play once with each line of lyrics)
e|-----------------------------------------------------------------|
B|-----------------------------------------------------------------|
G|-----------------------------------------------------------------|
D|--------0--------------------------------------------------------|
A|------2-----0-4---0-2---0-4-----2--------------------------------|
E|--0-0-----0-----0-----0-----0-3---3------------------------------|
I'm playing on the radio
Pictures on the TV
And every man take a-what he can
Shoot 'em on the silver screen

 [Riff C]  (same timing as above)
e|-----------------------------------------------------------------|
B|-----------------------------------------------------------------|
G|--------0--------------------------------------------------------|
D|------2-----0-4---0-2---0-4-----2--------------------------------|
A|----0-----0-----0-----0-----0-3---3------------------------------|
E|-----------------------------------------------------------------|

Stickin' the law, knockin' them down
Livin' out a fantasy

[Riff B with]
There's a bad man cruisin' around
In a big black limousine

[Riff D]
       |  |  |    |   ||    |     |  |  |   |
      B(vii)          A(v) B(vii)
Don't let it be wrong,     don't let it be right

A(v)      G(iii)     D#/F        Em
Give into spite, and double your sights

[Chorus]
[Riff A] with:
Big gun -- big gun, number one
Big gun
e|-----------------------------------| G
B|-----------------------------------| T
G|----0------------------------------| R
D|------2--0------------------2------|
A|--------------2P0---2-0------------| #
E|-------------------------3--0------| 2
Big gun, can you hit on the loon  (I SAID I couldn't hear the words!)

[Riff B twice]

[Verse 2]
[With Riff B]
Terminator's using acres
Shooting up Hollywood
Snakes he ate with a funny fad
Gettin' up 'n' doin' no good

[With Riff C]
If you ain't wise, uncover the lies
To fuss of you

[With Riff B]
Classified lady killers
Playin' in the U.N. too

[With Riff D]
The sooner you are, you're taking the town
Better look out when he's comin' 'round

[Chorus]

[Solo]
e|---3p0-0--(GTR 1)------------------------------------------------|
B|------3----------------------------------------------------------|
G|-----------------------------------------------------------------|
D|---------------------------2-----5----2p0h2---(GTR 2)------------|
A|-----------------------------------------------------------------|
E|-----------------------------------------------------------------|

e|-----------------------------------------------------------------|
B|-----------------------------------------------------------------|
G|-----------------------------------------------------------------|
D|---5--4p2p0--4p2p0-2h5p2p0-----------0-----------2-----2---------|
A|-----------------------------2p0---2---2p0-----------------------|
E|---------------------------------3---------3-2-0---3p0-----------|
etc. etc.

[The soloing is in E minor (I think) -- just go crazy and you'll
get it close enough]

Repeat the [CHORUS] once more and then free-form it to the end.

************************************

| \  Slide down
| p  Pull-off
| h  Hammer-on

************************************

            
            
Suggest correction
Creating personal tab
Creating personal tab
You can edit any tab online and save it as your Personal.

You can edit, replace or remove any tab part or add personal notes – all changes will be seen only by you.

Personal tabs can be accessed anytime from any device, even offline.
Learn more »
comments
print report bad tab
9 comments total. Showing first comments.
0 reply
cyberdot 10 Aug 14, 2004 08:00 PM

Nice tab, but the lyrics are VERY wrong.
These are not the right lyrics AT ALL.
PLEASE change it.

0 reply
titan metal 30 Apr 06, 2005 08:00 PM

is this an acdc song?? i dont think so. is it on a rarity i have never fukking heard it before.

0 reply
monkey_xxx2003 660 May 07, 2005 08:00 PM

ive never heard of this song before, what is it on? oh well, guess you are not registered. e mail me at monkey_xxx2003@yahoo.com i want to know what this is from

guest
Wanna post a correction for this tab? Suggest correction