Oops, an error
Loading. Please wait.
We have an official Dirty Deeds Done Dirt Cheap tab made by UG professional guitarists. Check out the tab »
×
by AC/DC
9,662 views 15 this week
7 commentsread comments
1 2 3 4 5
x 6
add to favorites
×
Save as Personal and add changes to this tab that will be seen only by you. Learn more ›
×
You can save this tab as Personal to edit and correct it or add notes. All changes will be seen only by you. Learn more »
launch autoscroll
font size
0
reset
how to read this tab
guitar tuner
backing track
0:00
0:00
edit
Autoscroll
slow
fast
+/-
esc
set tempo
stop
Dirty Deeds Done Dirt Cheap

A C / D C

Tabbed By Aaron Bridgeman (rokken@sicness.net)


http://bogans.arecool.net

KEY:
/ = slide up

INTRO:
e|-----------------------------------|
B|-----------------------------------|
G|----------------------------7------|
D|-2-----5--2-2-----7--2-2----7--2-2-|
A|-2-----5--2-2-----7--2-2----5--2-2-|
E|-0-----3--0-0-----5--0-0-------0-0-|

VERSE:
e|---------------|
B|---------------|
G|-7-7/9---------|
D|-7-7/9- ring --|
A|-5-5/7---------|
E|---------------|

PRE-CHORUS:
e|---------------------------|
B|---------------------------|
G|-7-7/9-7/9-7/9-7/9-9-9-9-9-|
D|-7-7/9-7/9-7/9-7/9-9-9-9-9-|
A|-5-5/7-5/7-5/7-5/7-7-7-7-7-|
E|---------------------------|

CHORUS:
e|----------------------------|
B|----------------------------|
G|-2--------------9---9--7--9-|
D|-2---7--5--7----9---9--7--9-|
A|-0---7--5--7----7---7--5--7-|
E|-----5--3--5----0-----------|

That's all I can be stuffed, tab for solo is around.

            
            
Suggest correction
Creating personal tab
Creating personal tab
You can edit any tab online and save it as your Personal.

You can edit, replace or remove any tab part or add personal notes – all changes will be seen only by you.

Personal tabs can be accessed anytime from any device, even offline.
Learn more »
comments
print report bad tab
7 comments total. Showing first comments.
-1 reply
NewFoundGlory23 30 May 02, 2002 08:00 PM

-----------------2--
-----------------3--
-----------------2--
--------------------
-7--7-5-7--2--2----2
-7--7-5-5--2--2----2
-5--5-3-5--0--0----0
That's another way to play the choruse, the first part is the same as yours but just a little easier

-1 reply
NewFoundGlory23 30 May 02, 2002 08:00 PM

-----------------2--
-----------------3--
-----------------2--
--------------------
-7--7-5-7--2--2----2
-7--7-5-5--2--2----2
-5--5-3-5--0--0----0
That's another way to play the choruse, the first part is the same as yours but just a little easier otherwise, nice tab

-1 reply
fender strat 81 10 Dec 23, 2002 07:00 PM

this tab sucks

guest
Wanna post a correction for this tab? Suggest correction