Oops, an error
Loading. Please wait.

Dog Eat Dog Bass Tab

version 2
version 2

Whole song

Interactive

2,342 views 9 this week
7 commentsread comments
1 2 3 4 5
excellent!
x 4
add to favorites
launch autoscroll
font size
0
reset
guitar tuner
Tab Pro tools
  • play this tab
  • loop segment
  • change instrument
  • show fretboard
  • metronome
×
Best way to learn
"Dog Eat Dog"
Autoscroll
slow
fast
+/-
esc
set tempo
stop
Contributor
AC/DC-Dog Eat Dog
Let There Be Rock (1977)
Tabbed by: playinbass1432
Email: playinbass1432@hotmail.com

Tuning: Tune all strings 1/2 step up. (F,A#,D#,G#)

Intro:

   F   A#  D#                          F   A#  D#
G|-----------------|-----------------|-----------------|-----------------|
D|-----------------|-----------------|-----------------|-----------------|
A|---------5-------|-----------------|---------5-------|-----------------|
E|-0---5-----------|-----------------|-0---5-----------|-----------------|

Verse 1:

   F
G|-----------------|-----------------|-----------------|-----------------|
D|-----------------|-----------------|-----------------|-----------------|
A|-----------------|-----------------|-----------------|-----------------|
E|-0-0-0-0-0-0-0-0-|-0-0-0-0-0-0-0-0-|-0-0-0-0-0-0-0-0-|-0-0-0-0-0-0-0-0-|

   F
G|-----------------|-----------------|-----------------|-----------------|
D|-----------------|-----------------|-----------------|-----------------|
A|-----------------|-----------------|-----------------|-----------------|
E|-0-0-0-0-0-0-0-0-|-0-0-0-0-0-0-0-0-|-0-0-0-0-0-0-0-0-|-0-0-0-0-0-0-0-0-|

   A#
G|-----------------|-----------------|-----------------|-----------------|
D|-----------------|-----------------|-----------------|-----------------|
A|-----------------|-----------------|-----------------|-----------------|
E|-5-5-5-5-5-5-5-5-|-5-5-5-5-5-5-5-5-|-5-5-5-5-5-5-5-5-|-5-5-5-5-5-5-5-5-|

   F
G|-----------------|-----------------|-----------------|-----------------|
D|-----------------|-----------------|-----------------|-----------------|
A|-----------------|-----------------|-----------------|-----------------|
E|-0-0-0-0-0-0-0-0-|-0-0-0-0-0-0-0-0-|-0-0-0-0-0-0-0-0-|-0-0-0-0-0-0-0-0-|

Pre Chorus 1:

 
   B#                                  A#
G|-----------------|-----------------|-----------------|-----------------|
D|-----------------|-----------------|-----------------|-----------------|
A|-----------------|-----------------|-----------------|-----------------|
E|-7-7-7-7-7-7-7-7-|-7-7-7-7-7-7-7-7-|-5-5-5-5-5-5-5-5-|-5-5-5-5-5-5-5-5-|


Chorus 1:

   B#  C#   D#                         B#  C#   D#            
G|-----------------|-----------------|-----------------|-----------------|
D|-----------------|-----------------|-----------------|-----------------|
A|-2---4----5------|-----------------|-2---4----5------|-----------------|
E|-----------------|-----------------|-----------------|-----------------|

Verse 1:

   F
G|-----------------|-----------------|-----------------|-----------------|
D|-----------------|-----------------|-----------------|-----------------|
A|-----------------|-----------------|-----------------|-----------------|
E|-0-0-0-0-0-0-0-0-|-0-0-0-0-0-0-0-0-|-0-0-0-0-0-0-0-0-|-0-0-0-0-0-0-0-0-|

   F
G|-----------------|-----------------|-----------------|-----------------|
D|-----------------|-----------------|-----------------|-----------------|
A|-----------------|-----------------|-----------------|-----------------|
E|-0-0-0-0-0-0-0-0-|-0-0-0-0-0-0-0-0-|-0-0-0-0-0-0-0-0-|-0-0-0-0-0-0-2-3-|

   A#
G|-----------------|-----------------|-----------------|-----------------|
D|-----------------|-----------------|-----------------|-----------------|
A|-----------------|-----------------|-----------------|-----------------|
E|-5-5-5-5-5-5-5-5-|-5-5-5-5-5-5-5-5-|-5-5-5-5-5-5-5-5-|-5-5-5-5-5-5-5-5-|

   F
G|-----------------|-----------------|-----------------|-----------------|
D|-----------------|-----------------|-----------------|-----------------|
A|-----------------|-----------------|-----------------|-----------------|
E|-0-0-0-0-0-0-0-0-|-0-0-0-0-0-0-0-0-|-0-0-0-0-0-0-0-0-|-0-0-0-0-0-0-0-0-|

Pre Chorus 2:

   B#                                  A#
G|-----------------|-----------------|-----------------|-----------------|
D|-----------------|-----------------|-----------------|-----------------|
A|-----------------|-----------------|-----------------|-----------------|
E|-7-7-7-7-7-7-7-7-|-7-7-7-7-7-7-7-7-|-5-5-5-5-5-5-5-5-|-5-5-5-5-5-5-5-5-|


Chorus 2:

   B#  C#   D#                         B#  C#   D#            
G|-----------------|-----------------|-----------------|-----------------|
D|-----------------|-----------------|-----------------|-----------------|
A|-2---4----5------|-----------------|-2---4----5------|-----------------|
E|-----------------|-----------------|-----------------|-------------3b--|

Guitar Solo:

   A#                                  A#                                   
G|-----------------|-----------------|-----------------|-----------------|
D|-----------------|-----------------|-----------------|-----------------|
A|-----------------|-----------------|-----------------|-----------------|
E|-5-5-5-5-5-5-5-5-|-5-5-5---5---5-3-|-5-5-5-5-5-5-5-3-|-5-5-5---5---3-0-|

   F                                   F      
G|-----------------|-----------------|-----------------|-----------------|
D|-----------------|-----------------|-----------------|-----------------|
A|-----------------|-----7---7-x-5-6-|-----------------|-----7---7-------|
E|-0-0-0-0-0-0-0-0-|-0-0-------------|-0-0-0-0-0-0-0-0-|-0-0-------5-0-3-|

   A#                                  A#                                   
G|-----------------|-----------------|-----------------|-----------------|
D|-----------------|-----------------|-----------------|-----------------|
A|-----------------|-----------------|-----------------|-----------------|
E|-5-5-5-5-5-5-5-5-|-5-3-5---5---5-3-|-5-5-5-5-5-5-5-5-|-5-3-5---5---5---|

   B#  C#   D#                         B#  C#   D#            
G|-----------------|-----------------|-----------------|-----------------|
D|-----------------|-----------------|-----------------|-----------------|
A|-2---4----5------|-----------------|-2---4----5------|-----------------|
E|-----------------|-----------------|-----------------|-----------------|

Verse 3:

   F
G|-----------------|-----------------|-----------------|-----------------|
D|-----------------|-----------------|-----------------|-----------------|
A|-----------------|-----------------|-----------------|-----------------|
E|-0-0-0-0-0-0-0-0-|-0-0-0-0-0-0-0-0-|-0-0-0-0-0-0-0-0-|-0-0-0-0-0-0-0-0-|

   F
G|-----------------|-----------------|-----------------|-----------------|
D|-----------------|-----------------|-----------------|-----------------|
A|-----------------|-----------------|-----------------|-----------------|
E|-0-0-0-0-0-0-0-0-|-0-0-0-0-0-0-0-0-|-0-0-0-0-0-0-0-0-|-0-0-0-0-0-0-0-0-|

   A#
G|-----------------|-----------------|-----------------|-----------------|
D|-----------------|-----------------|-----------------|-----------------|
A|-----------------|-----------------|-----------------|-----------------|
E|-5-5-5-5-5-5-5-5-|-5-5-5-5-5-5-5-5-|-5-5-5-5-5-5-5-5-|-5-5-5-5-5-5-5-5-|

   F
G|-----------------|-----------------|-----------------|-----------------|
D|-----------------|-----------------|-----------------|-----------------|
A|-----------------|-----------------|-----------------|-----------------|
E|-0-0-0-0-0-0-0-0-|-0-0-0-0-0-0-0-0-|-0-0-0-0-0-0-0-0-|-0-0-0-0-0-0-0-0-|

Pre Chorus 3:

    B#                                  A#
G|-----------------|-----------------|-----------------|-----------------|
D|-----------------|-----------------|-----------------|-----------------|
A|-----------------|-----------------|-----------------|-----------------|
E|-7-7-7-7-7-7-7-7-|-7-7-7-7-7-7-7-7-|-5-5-5-5-5-5-5-5-|-5-5-5-5-5-5-5-5-|


Chorus 3:

   B#  C#   D#                         B#  C#   D#            
G|-----------------|-----------------|-----------------|-----------------|
D|-----------------|-----------------|-----------------|-----------------|
A|-2---4----5------|------------5-4--|-2---4----5------|-----------------|
E|-----------------|-----------------|-----------------|-----------------|

Outro:  
   
   F
G|-----------------|-----------------|-----------------|-----------------|
D|-----------------|-----------------|-----------------|-----------------|
A|-----------------|-----------------|-----------------|-----------------|
E|-0-0-0-0-0-0-0-0-|-0-0-0-0-0-0-0-0-|-0-0-0-0-0-0-0-0-|-0-0-0-0-0-0-0-0-|

   F
G|-----------------|-----------------|-----------------|-----------------|
D|-----------------|-----------------|-----------------|-----------------|
A|-----------------|-----------------|-----------------|-----------------|
E|-0-0-0-0-0-0-0-0-|-0-0-0-0-0-0-0-0-|-0-0-0-0-0-0-0-0-|-0-0-0-0-0-0-0-0-|

   F
G|-----------------|-----------------|-----------------|-----------------|
D|-----------------|-----------------|-----------------|-----------------|
A|-----------------|-----------------|-----------------|---------------5-|
E|-0-0-0-0-0-0-0-0-|-0-0-0-0-0-0-0-0-|-0-0-0-0-0-0-0-0-|-0-0-0-0-0-0-0---|

     F 
G|-----------------|-----------------|-----------------|-----------------|
D|-----------------|-----------------|-----------------|-----------------|
A|-6-7-7-7-7-7-7-7-|-6-7-7-7-7-7-7-6-|h7-7-7-6h7-7-6h7-|-7-7-5-5-4-4-2-0-|
E|-----------------|-----------------|-----------------|-----------------|

   F                             G#    F
G|-----------------|-----------------|-----------------|-----------------|
D|-----------------|-----------------|-----------------|-----------------|
A|-----------------|-----------------|-----------------|-----------------|
E|-0-0-0-0-0-0-0-0-|-0-0-0-0-0-0-3b--|-0-0-0-0-0-0-0-0-|-0-0-0-0-0-0-0-0-|

   F
G|-----------------|-----------------|-----------------|-----------------|
D|-----------------|-----------------|-----------------|-----------------|
A|-----------------|-----------------|-----------------|-----------------|
E|-0-0-0-0-0-0-0-0-|-0-0-0-0-0-0-0-0-|-0-0-0-0-0-0-0-0-|-0-0-0-0-0-0-0-0-|



comments
print report bad tab
7 comments total. Showing first comments.
+1 reply
ibanez87 wrote on November 30 2007, 11:01 pm

Great tab, correct tuning (but it's more like 1/4 step up, wired)
Hey, I might be wrong but doesn't pre-chorus go from
b to a not e to d?

0 reply
playinbass1432 wrote on December 1 2007, 11:02 am

Ah shit, yeah I put it on the wrong string haha. Thanks.

0 reply
playinbass1432 wrote on January 3 2008, 05:09 pm

Fixed.

I want to post or [tab]
guest
You may want to rate the tab now too:
select rating
Please do not post tabs as comments. Select "correction" instead!