Oops, an error
Loading. Please wait.

Evil Walks guitar pro

version 1
version 1

Whole song

Interactive

by AC/DC
7,163 views 1 this week
1 commentread comment
1 2 3 4 5
x 4
add to favorites
guitar tuner
Autoscroll
slow
fast
+/-
esc
set tempo
stop
Author
File Format
Filesize
Instruments
.gp5
21 Kb
rhythm_guitars, lead_guitars, basses
"Evil Walks"
demo version
Play now

or get full version for Free

×
Get full version now!
Learn and play this song
in Tab Pro
Try for free

or get $10 off Welcome Bonus

Get welcome bonus
Get access to Tab Pro version of “Evil Walks”!
Tab Pro is a premium guitar tab service, available on PC, Mac, iOS and Android
TRY FOR FREE
Your download will start in 7 seconds
×
Like this song? We have more! Follow us on Facebook for daily tips, lessons and other guitar-related content.
To download “Evil Walks” Guitar Pro tab click button below
Please note that you must have Guitar Pro software installed on your
computer in order to view this file.
Suggest correction
comments
report bad tab
1 comment total.
0 reply
Stratman_69 31 Aug 29, 2009 08:05 PM

These tabs for Evil Walks are WRONG! This might not be perfect because I'm tabbing from memory but is MUCH closer...

INTRO
E-------------------------------
B-------------------------------
G-----------------7-(7)-6---4--- x3
D------------2/9-(9)-9--7---5---
A---2-2-------------------7-----
E---0-0-------------------------

E--------------------------------------------------------
B------------------------------------------------3-3--3-2
G-----------------7-(7)--------------------------2-2--2-2
D------------2/9-(9)-9---2------------7----------0-0--0-2
A---2-2------------------0--5---2-4-5-5-7---2-4--0-0--0-0
E---0-0---------------------3---0-2-3---5---0-2----------

VERSE after 3x verse starts: "Black shadow hangin' over your shoulder.."
E----------------------------------
B-----0-0--0--7--7---------7-------
G---4/6-4--4-/7--7-6--6-6--7--6-6-6 x6
D---6/7-6--6-/7--7-7--7-7--7--7-7-7
A------------------0--0-0-(0)-0-0-0
E----------------------------------

CHORUS "Evil walks, behind you..."
E-------3--3-------------
B-------3--3-3--2---2-2-2
G-------0--0-2--2---2-2-2 x4
D-------0--0-0--2---2-2-2
A---2-4-2--2-0--0---0-0-0
E---0-2-3--3-------------

when it goes into "You just cry wolf..." play INTRO x4

SOLO (not good enough for this yet, just started playing electric a few months ago, been a bass player for 25 years! : )

when it comes out of solo into "EVIL!"
E------------
B---------3-2
G---------2-2
D---------0-2 x4
A--2-2----0-0
E--0-0-------

then CHORUS part x4

slow part at end after "you're soooooo baaad!"
E-------------------
B---0-0--0-/7-7-2--2
G---6-4--4-/7-7-2--2
D---7-6--6-/7-7-2--2 (I think he ends on the A again once)
A---------------0--0
E-------------------

Well, there it is. I'm pretty sure this will sound much better than the garbage on here now. Feedback is appreciated. Like I said, I'm doing this from memory. Just the song in my head. When I have more time, I'll break the album out and check it. Also, some chords might be open and some bar and vice-versa. You AC/DC fans know what I mean ;)Rock on, guys! ANGUS! ANGUS! ANGUS!

guest
You may want to rate the tab now too:
select rating