Oops, an error
Loading. Please wait.

Evil Walks Tab

version 1
version 1

Whole song

  • Complete tab of the song with solo and lead/rhythm... Show more

Interactive

by AC/DC
23,920 views 30 this week
7 commentsread comments
1 2 3 4 5
x 11
add to favorites
×
Save as Personal and add changes to this tab that will be seen only by you. Learn more ›
×
You can save this tab as Personal to edit and correct it or add notes. All changes will be seen only by you. Learn more »
save as personal
new!
launch autoscroll
font size
0
reset
how to read this tab
guitar tuner
Autoscroll
slow
fast
+/-
esc
set tempo
stop
Author
Evil Walks- Ac DC
Tabbed by:Acdc101
Email:element4909@yahoo.com
Tuning:standard

 [Intro]
e|--------------------|-----------------------|----------------------|
B|--------------------|--------------3-----2--|------2--0------------|
G|--------------1--1--|---------4-------4--2--|------2--0------1--1--|
D|--------------2--2--|------2----------------|----------------2--2--|
A|--------------2--2--|-----------------------|----------------2--2--|
E|--------------0--0--|-----------------------|----------------0--0--|

 [3rd time]
e|-----------------------|-------------------|----------3--------2--|
B|--------------3-----2--|--------0----------|-----3----3--------3--|
G|---------4-------4--2--|--------0----------|--1--2----0--------2--|
D|------2-------------2--|--------0----------|--2--0----0--------0--|
A|--------------------0--|-------------------|--2-------2--------0--|
E|-----------------------|--------3----------|--0--2----3-----------|

e|-------------------|----------3--3----3--2--|------------------|
B|--------2----------|-----3----3--3----3--3--|------------------|
G|--------2----------|--1--2----0--0----0--2--|------------------|
D|--------2----------|--2--0----0--0----0--0--|------------------|
A|--------0----------|--2-------2--2----2--0--|------------------|
E|-------------------|--0--2----3--3----3-----|------------------|

 [Verse guitar 1]
e|-----------------------------|---------------------------|
B|-9-10--9----9----------------|-----------10--------------|
G|----9--9----9--11----11---9--|--------9--------9------9--|
D|-9-11--9----9--12----12--11--|----11--------------11--9--|
A|-----------------------------|---------------------------|
E|-----------------------------|---------------------------|

 [Verse guitar 2]
e|-------------------------|------------------------|
B|---5--5----5--3----3--2--|----------3----2--------|
G|-4-6--4----4--2----2--2--|----------2----2--------|
D|----------------------2--|-------2--4----2--------|
A|-------------------------|----4-------------4-----|
E|-------------------------|---------------------0--|
Suggest correction
comments
print report bad tab
7 comments total. Showing first comments.
0 reply
dude im 11 10 Jan 08, 2005 07:00 PM

ummmmmmm

0 reply
lynrd skynrd 10 Sep 05, 2006 05:48 PM

this sux

0 reply
lynrd skynrd 10 Sep 05, 2006 05:49 PM

it sux and its off

guest
You may want to rate the tab now too:
select rating
Wanna post a correction for this tab? Suggest correction