Oops, an error
Loading. Please wait.

Evil Walks tab

version 3
version 3

Whole song

  • Complete tab of the song with solo and lead/rhythm... Show more

Interactive

by AC/DC
247 views 3 this week
no commentswrite comment
1 2 3 4 5
3 more votes to show rating
add to favorites
×
Save as Personal and add changes to this tab that will be seen only by you. Learn more ›
×
You can save this tab as Personal to edit and correct it or add notes. All changes will be seen only by you. Learn more »
launch autoscroll
font size
0
reset
how to read this tab
guitar tuner
edit
Autoscroll
slow
fast
+/-
esc
set tempo
stop
Author
Difficulty
About this tab version
Complete tab of the song with solo and lead/rhythm parts. Please rate/comment :). Was this info helpful? Yes No
Artist & Song:  AC/DC - "Evil Walks"
Album: "For Those About to Rock"
Tuning: standard, arranged for 2 guitars
tabbed by jjhand


[Intro]
e|--------------------|-----------------------|----------------------|
B|--------------------|--------------3-----2--|---------0------------|
G|--------------------|---------4-------4--2--|---------0------------|
D|--------------2--2--|------2----------------|------2---------2--2--|
A|--------------2--2--|-----------------------|----------------2--2--|
E|--------------0--0--|-----------------------|----------------0--0--|

e|-----------------------|----------------------|
B|--------------3-----2--|---------0------------|
G|---------4-------4--2--|---------0------------|  play 2x
D|------2----------------|------2---------2--2--|
A|-----------------------|----------------2--2--|
E|-----------------------|----------------0--0--|

 ending - chords are played on off beats
e|-----------------------|-------------------|----------3--------2--|
B|--------------3-----2--|--------0----------|-----0----3--------3--|
G|---------4-------4--2--|--------0----------|--1--0----0--------2--|
D|------2-------------2--|--------0----------|--2--0----0--------0--|
A|--------------------0--|-------------------|--2-------2--------0--|
E|-----------------------|--------3----------|--0--2----3-----------|

e|-------------------|----------3--3----3--2--|------------------|
B|--------2----------|----------3--3----3--3--|------------------|
G|--------2----------|--1--0----0--0----0--2--|------------------|
D|--------2----------|--2--0----0--0----0--0--|------------------|
A|--------0----------|--2-------2--2----2--0--|------------------|
E|-------------------|--0--2----3--3----3-----|------------------|



[Verse] 

play this part below 6x

  Guitar 1:
e|------------------------------|---------------------------|
B|-9h10--9-----9--10-----10--10-|-----------10----10-10-----|
G|-9-----9-----9--11-----11---9-|--------9---9-----9--9-----|
D|-9h11--9-----9--12-----12--11-|----11-----12----------11--|
A|------------------------------|---------------------------|
E|------------------------------|---------------------------|
 |
 | Guitar 2:
e|------------------------------|---------------------------|
B|---5---5-----5--3------3---2--|-----------3------2--------|
G|-4h6---4-----4--2------2---2--|-----------2------2--------|
D|---------------------------2--|-----------4------2--------|
A|---------------------------0--|----0--0-------------------|
E|------------------------------|------------------------0--|




[Chorus]

e|----------3--3----3-----|------------------|
B|----------3--3----3--3--|------------------|
G|-----0----0--0----0--2--|--------2---------|
D|--2--0----0--0----0--0--|--------2---------|  play 4x
A|--2-------2--2----2--0--|--------0---------|
E|--0--2----3--3----3-----|------------------|
  "Evil    walks   behind       you"
  "Evil    sleeps  beside       you"
  "Evil    talks   arouse       you"
  "Evil    walks   behind       you"
 




[Verse 2]

  Guitar 1:
e|------------------------------|---------------------------|
B|-9h10--9-----9--10-----10--10-|-----------10----10-10-----|
G|-9-----9-----9--11-----11---9-|--------9---9-----9--9-----|
D|-9h11--9-----9--12-----12--11-|----11-----12----------11--|
A|------------------------------|---------------------------|
E|------------------------------|---------------------------|
 |
 | Guitar 2:
e|------------------------------|---------------------------|
B|---5---5-----5--3------3---2--|-----------3------2--------|
G|-4h6---4-----4--2------2---2--|-----------2------2--------|
D|---------------------------2--|-----------4------2--------|
A|---------------------------0--|----0--0-------------------|
E|------------------------------|------------------------0--|



[Chorus 2]

e|----------3--3----3-----|------------------|
B|----------3--3----3--3--|------------------|
G|--1--0----0--0----0--2--|--------2---------|
D|--2--0----0--0----0--0--|--------2---------|  play 3x
A|--2-------2--2----2--0--|--------0---------|
E|--0--2----3--3----3-----|------------------|
  "Evil    walks   behind       you"
  "Evil    sleeps  beside       you"
  "Evil    talks   arouse       you"


e|----------3--3----3-----|------------------|
B|----------3--3----3--3--|------------------|
G|-----0----0--0----0--2--|--------2---------|
D|--2--0----0--0----0--0--|--------2----2--2-| hold E chord
A|--2-------2--2----2--0--|--------0----2--2-|
E|--0--2----3--3----3-----|-------------0--0-|
  "Evil    walks   behind       you"



[Bridge]

e|-----------------------|----------------------|
B|--------------3-----2--|---------0------------|
G|---------4-------4--2--|---------0------------|  play 2x
D|------2----------------|------2---------2--2--|
A|-----------------------|----------------2--2--|
E|-----------------------|----------------0--0--|



[Solo]
e|----------------------12-------|-------------------------------------|
B|-12---12~----------------12-15-|-------12----------------------------|
G|-------------------------------|-14pb16---16r14p12----14-12\---------|
D|-------------------------------|-------------------14-------------14-|
A|-------------------------------|-------------------------------------|
E|-------------------------------|-------------------------------------|

e|--------------------------------|-------------------------------|
B|---------------------8qb--8qb---|-------0-5-----5-----5-----5---|
G|-------------------9----------9-|-----------7b9---7b9---7b9-----|
D|-14PH-14~\----------------------|-------------------------------|
A|--------------------------------|-------------------------------|
E|--------------------------------|-------------------------------|

e|-----7-----7-----7----------------------|------------------------------------------|
B|-8b9---8b9---8b9---8b9~-----10-11-12----|-10---------------------------------------|
G|-------------------------------------12-|----12b14~---------12/14-12p11--12--------|
D|----------------------------------------|------------------------------14--12h14---|
A|----------------------------------------|------------------------------------------|
E|----------------------------------------|------------------------------------------|

e|--------------------------------|----------12-------------12--------------|--------|
B|-12------------------12---------|-------12----15b17~---------15p12--------|--------|
G|----14b16~-------/13----13~-----|-14b16----------------------------14b16--|-(14\)--|
D|--------------------------------|-----------------------------------------|--------|
A|--------------------------------|-----------------------------------------|--------|
E|--------------------------------|-----------------------------------------|--------|
   last slide occurs during breakdown riff below


[Solo Rhythm Guitar part]

e|-------------------------|----------------------|
B|-------------------------|----------------------|
G|----------------------2--|---------0------------|
D|-2-----2-----2--2--2--2--|---------0---------2--|  play 4x
A|-2-----2-----2--2--2--0--|---------x---------2--|
E|-0-----0-----0--0--0-----|---------3---------0--|



[Breakdown]
  Rhythm Guitar
e|------------------------|----------------------|
B|------------------------|----------------------|
G|------------------------|----------------------| play 4x
D|------------------------|----------------------|
A|---------------5-----4--|----------2-----2--2--|
E|-------0--/7------7--5--|-------0--3-----0--0--|


  Lead Guitar
e|-----------------|-----------------------|------------|----------|
B|-----------------|-------------15b17-b17-|--b17~~~~~~~~~~~~~\----|
G|-----------------|-----------------------|------------|----------|
D|-----------------|-----------------------|------------|----------|
A|-----------------|-----------------------|------------|----------|
E|-----------------|-----------------------|------------|----------|

e|------------------------|-----------------------------|-----------------------|
B|-------15---------------|-----------------------------|-----------------------|
G|-14b16----14b16~--------|-------------14-b16r14-12----|-14--------------------|
D|------------------------|--------------------------14-|----14~----------------|
A|------------------------|-----------------------------|-----------------------|
E|------------------------|-----------------------------|-----------------------|


[Breakdown Part 2]

Rhythm then starts playing the intro again (2:56):

e|-----------------------|----------------------|
B|--------------3-----2--|---------0------------|
G|---------4-------4--2--|---------0------------|  play 3x
D|------2----------------|------2---------2--2--|
A|-----------------------|----------------2--2--|
E|-----------------------|----------------0--0--|

e|-----------------------|----------------------|
B|--------------3-----2--|---------0------------|
G|---------4-------4--2--|---------0------------|
D|------2----------------|------2---------------|
A|-----------------------|----------------------|
E|-----------------------|----------------------|

Lead part for above:

e|-----------------|----------------------|------------------|-----------|
B|-----------------|---------12----15-----|-15----15---------|-----------|
G|-----------------|------15----14b16r-12-|-14b16-b16--------|-----------|
D|-----------------|----------------------|------------------|-----------|
A|-----------------|----------------------|------------------|-----------|
E|-----------------|----------------------|------------------|-----------|

random pick scrapes for 4 bars



[Final Chorus]

Rhythm Part
e|-----------------------|----------------------|
B|---------------------3-|----------------------|
G|---------------------2-|---------2------------|
D|--2--2---------------0-|---------2------------|  play 4x
A|--2--2-----------------|---------0------------|
E|--0--0-----------------|----------------------|

Lead Part
e|-----------------|------------------|------------------|--------------|
B|--------------5--|-------5----------|------------14b15-|------14~-----|
G|--------------7b9|-------7b9--------|------------14b16-|------14~-----|
D|-----------------|------------------|------------------|--------------|
A|-----------------|------------------|------------------|--------------|
E|-----------------|------------------|------------------|--------------|


e|------------12---|-------12---------|------------------|-12-----12~-------|
B|------------15b17|-------15b17~-----|------------------|-15b17--15b17~----|
G|-----------------|------------------|------------------|------------------|
D|-----------------|------------------|------------------|------------------|
A|-----------------|------------------|------------------|------------------|
E|-----------------|------------------|------10\-/x------|------------------|


Back to normal Chorus, both Guitars:

e|----------3--3----3-----|------------------|
B|----------3--3----3--3--|------------------|
G|-----0----0--0----0--2--|--------2---------|
D|--2--0----0--0----0--0--|--------2---------|  play 8x
A|--2-------2--2----2--0--|--------0---------|
E|--0--2----3--3----3-----|------------------|
  "Evil    walks   behind       you"
  "Evil    sleeps  beside       you"
  "Evil    talks   arouse       you"
  "Evil    walks   behind       you"



[Outro Solo]

   * played during last 4 repeats of chorus above

e|--------------------------12--------|------------------------|-12~-----12~-----12------|
B|----------12---12---12------15-12---|-12---------------------|------15-----------15p12-|
G|-14b16-b15--b15--b15-------------14-|----14p12--14~----------|-------------------------|
D|------------------------------------|-----------------14-14~-|-------------------------|
A|------------------------------------|------------------------|-------------------------|
E|------------------------------------|------------------------|-------------------------|


e|----12----12----12~------15-12---|-12----------------------|--------------------------|
B|-15----15----15---------------15-|-------------------12----|----------------12---12---|
G|---------------------------------|----14b15r-12-14~-----12-|-----14b16~--b15--b15-----|
D|---------------------------------|-------------------------|-14~----------------------|
A|---------------------------------|-------------------------|--------------------------|
E|---------------------------------|-------------------------|--------------------------|



[Ending]

    Rhythm - Slow down!
e|----------------------------|----------------------|-5--------------------|---------|
B|--------------------------3-|----------------------|-5--5-----5--3-----3--|---------|
G|----------------0---------2-|---------2------------|----4-----4--2-----2--|--2------|
D|--2----2----0---0---------0-|---------2------------|----------------------|--2------|
A|--2----2----0---x-----------|---------0------------|----------------------|--0------|
E|--0----0----2---3-----------|----------------------|----------------------|---------|
 |
 |  Lead
e|----------------------------|----------------------|----------------------|---------|
B|----------------------------|---------15b17~~~~~~~~|-------------------7--|--5------|
G|-14b16-b16-b16-b16~------14~|----------------------|-------------------7--|--6------|
D|----------------------------|----------------------|-------------------7--|--7------|
A|----------------------------|----------------------|----------------------|---------|
E|----------------------------|----------------------|----------------------|---------|



************************************

| /   slide up
| \   slide down
| h   hammer-on
| p   pull-off
| ~   vibrato
| +   harmonic
| ()  ghost note
| x   Mute note
| b   Bend
| pb  Pre-bend
| r   Bend release
| qb  blues quarter tone bend, not quite to next fret's pitch 

************************************


            
            
Suggest correction
Creating personal tab
Creating personal tab
You can edit any tab online and save it as your Personal.

You can edit, replace or remove any tab part or add personal notes – all changes will be seen only by you.

Personal tabs can be accessed anytime from any device, even offline.
Learn more »
Give kudos to tab author, rate the tab!
1 2 3 4 5
comments
print report bad tab
guest
You may want to rate the tab now too:
select rating
Wanna post a correction for this tab? Suggest correction