Oops, an error
Loading. Please wait.

Fire Your Guns Tab

version 1
version 1

Whole song

Interactive

33,274 views 33 this week
14 commentsread comments
1 2 3 4 5
x 14
add to favorites
launch autoscroll
font size
0
reset
how to read this tab
guitar tuner
×
Best way to learn
"Fire Your Guns"
Autoscroll
slow
fast
+/-
esc
set tempo
stop
Tuning: E,A,D,G,B,e

(Riff 1) (x8)
e|----------------------|----------------------|
B|----------------------|----------------------|
G|----------------------|----------------------|
D|-2-2-2-2-2-2-2-2--2-2-|-2-2-2-2-2-2-2-2--2-2-|
A|-0-0-0-3-0-0-0-0--3-0-|-0-0-0-3-0-0-0-0--3-0-|
E|----------------------|----------------------|

(Riff 2) (x4)
e|------------|------------|------------|------------|
B|------------|------------|------------|------------|
G|-7--5-5-5-2-|-7--5-5-5-2-|-7--5-5-5-2-|-7--5-5-5-2-|
D|-7--5-5-5-2-|-7--5-5-5-2-|-7--5-5-5-2-|-7--5-5-5-2-|
A|-5--3-3-2-0-|-5--3-3-2-0-|-5--3-3-2-0-|-5--3-3-2-0-|
E|------------|------------|------------|------------|

(Riff 3)
e|----------------------3-|
B|----------------------3-|
G|-9--7--7--5--5--5--2--0-|
D|-9--7--7--5--5--5--2--0-|
A|-7--5--4--3--3--2--0--0-|
E|----------------------3-|

(Riff 1) (x8)
e|----------------------|----------------------|
B|----------------------|----------------------|
G|----------------------|----------------------|
D|-2-2-2-2-2-2-2-2--2-2-|-2-2-2-2-2-2-2-2--2-2-|
A|-0-0-0-3-0-0-0-0--3-0-|-0-0-0-3-0-0-0-0--3-0-|
E|----------------------|----------------------|

(Riff 2) (x4)
e|------------|------------|------------|------------|
B|------------|------------|------------|------------|
G|-7--5-5-5-2-|-7--5-5-5-2-|-7--5-5-5-2-|-7--5-5-5-2-|
D|-7--5-5-5-2-|-7--5-5-5-2-|-7--5-5-5-2-|-7--5-5-5-2-|
A|-5--3-3-2-0-|-5--3-3-2-0-|-5--3-3-2-0-|-5--3-3-2-0-|
E|------------|------------|------------|------------|
Suggest correction
comments
print report bad tab
14 comments total. Showing first comments.
0 reply
mikedeit 1,163 Mar 27, 2005 07:00 PM

Not bad.

0 reply
ibanez87 311 May 24, 2005 08:00 PM

Not bad? this iks excellent! I needed to pick a song and learn it. I picked "Fire you Guns" and this tab gave me the answer.

0 reply
ibanez87 311 Jun 02, 2005 08:00 PM

Okay maybe it is a little wrong...
I'm making ver2!

guest
You may want to rate the tab now too:
select rating
Wanna post a correction for this tab? Suggest correction