Oops, an error
Loading. Please wait.

Flick Of The Switch Tab

version 1
version 1

Whole song

Interactive

by AC/DC
11,617 views 36 this week
3 commentsread comments
1 2 3 4 5
x 9
add to favorites
×
Save as Personal and add changes to this tab that will be seen only by you. Learn more ›
×
You can save this tab as Personal to edit and correct it or add notes. All changes will be seen only by you. Learn more »
save as personal
new!
launch autoscroll
font size
0
reset
how to read this tab
guitar tuner
Autoscroll
slow
fast
+/-
esc
set tempo
stop
Tuning
E A D G B E
                     FLICK OF THE SWITCH  by  AC/DC
                     From the Album Flick of the Switch


INTRO
        
   A  C     D
|-----------2------------------|-----------2------------|------------------|
|-----------3------------------|-----------3--(Sustain--|------------------|
|--2--5-----2------------------|--2--5-----2---here-)---|------------------|
|--2--5-----0------------------|--2--5-----0------------|------------------|
|--0--3--0--------------2-3-2--|--0--3--0---------------|-----------2-3-2--|
|--------------1-2-3-4---------|------------------------|--1-2-3-4---------|


VERSE           
(Basically same as intro)

   A  C     D              
|-----------2-------------------|  Well there's love gone down the line   
|-----------3-------------------|  Suicidal balls and chains   
|--2--5-----2-------------------|  She sends signals out of distress   
|--2--5-----0-------------------|  She trouble she evil   
|--0--3--0---------------2-3-2--|     
|---------------1-2-3-4---------|     


|----------------------------------------|--------|
|--------3---------3---------3---------3-|--------|
|--------2---------2---------2---------2-|--------|She gets you reelin' on her
|--------0---------0---------0---------0-|--------|  rockin' machine
|--0--3------0--3------0--3------0--3----|-0-3~~~-|
|----------------------------------------|--------|

|----------------2-2-|--------------------|----------------2-|-2--3--2--|
|----------------3-3-|--------------------|----------------3-|-3--3--3--|
|-------------5--2-2-|--------------------|-------------5--2-|-2--0--2--|
|--2-2-2-2-2--5--0-0-|--------------------|--2-2-2-2-2--5--0-|-0--0--0--|
|--0-0-0-0-0--3------|--5--7~~~--5--3~~~--|--0-0-0-0-0--3----|----2-----|
|--------------------|--------------------|------------------|----3-----|

(Lyrics for the riff above:)

With a flick of the switch
She'll blow you up sky high
With a flick of the switch
she can satisfy
With a flick of the switch
she's gonna burn you down
With a flick of the switch
she can (crash) satisfy

|--2-----3--2-----2-----3--2--|
|--3-----3--3-----3-----3--3--|
|--2-----0--2-----2-----0--2--|
|--0-----0--0--0--0-----0--0--|
|--------2--------------2-----|
|-----0--3-----------0--3-----|


Suggest correction
comments
print report bad tab
3 comments total.
0 reply
monkey_xxx2003 660 Mar 14, 2005 07:00 PM

WHERES THE ***ING SOLO????!!!!!!

0 reply
jerreye 10 Feb 20, 2015 12:45 PM

For the intro and verse, I think it should be:

--------2-3-2---
1-2-3-4---------

Not...

--------2-3-2---
0-1-2-3---------

No?

0 reply
stompbox 10 May 23, 2016 06:24 PM

yes jerreye you are right you boy!!!!!!!

guest
Wanna post a correction for this tab? Suggest correction