Oops, an error
Loading. Please wait.

Flick Of The Switch tab

version 4
version 4

Whole song

Interactive

by AC/DC
52 views 6 this week
no commentswrite comment
1 2 3 4 5
3 more votes to show rating
add to favorites
×
Save as Personal and add changes to this tab that will be seen only by you. Learn more ›
×
You can save this tab as Personal to edit and correct it or add notes. All changes will be seen only by you. Learn more »
launch autoscroll
font size
0
reset
how to read this tab
guitar tuner
edit
Autoscroll
slow
fast
+/-
esc
set tempo
stop
Author
Difficulty
About this tab version
Updated from other versions, fixed solo timings and a few notes. Was this info helpful? Yes No
AC/DC - Flick of the Switch

[Intro]

e|----------------------|------------------------|----------------------|------------------------|
B|----------------3-----|------------------------|----------------3-----|------------------------|
G|-2--------5-----2-----|------------------------|-2--------5-----2-----|------------------------|
D|-2--------5-----0-----|------------------------|-2--------5-----0-----|------------------------|
A|-0--------3--0--------|----------------2--3--2-|-0--------3-----------|----------------2--3--2-|
E|----------------------|----1--2--3--4----------|----------------hold--|----1--2--3--4----------|
         
       


[Verse 1]

play this 4x before lyrics start

e|----------------------|------------------------|
B|----------------3-----|------------------------|
G|-2--------5-----2-----|------------------------|
D|-2--------5-----0-----|------------------------| play 3x
A|-0--------3--0--------|----------------2--3--2-|
E|----------------------|----1--2--3--4----------|


[Prechorus] 

e|----------------------|-----------------------|
B|----------------3-----|---------------------3-|
G|-2--------5-----2-----|---------------------2-|
D|-2--------5-----0-----|---------------------0-|
A|-0--------3--0--------|---------------0--3----|
E|----------------------|-----------------------|

e|----------------------|-----------------------|
B|---------3----------3-|---------3----------3--|
G|---------2----------2-|---------2----------2--|
D|---------0----------0-|---------0----------0--|
A|---0--3-------0--3----|---0--3-------0--3-----|
E|----------------------|-----------------------|




[Chorus]

e|-------------------------|------------------------|
B|----------------------3--|------------------------|
G|----------------------2--|------------------------|
D|-2--2--2--2-----2--2--0--|------------------------|
A|-3--0--0--0-----3--0-----|-5--5--3--5b6r----3--0--|
E|-------------------------|------------------------|
 "With a flick of the switch"

e|----------------------2--|----2--3----2----------|
B|----------------------3--|----3--3----3----------|
G|----------------------2--|----2--0----2----------|
D|-2--2--2--2-----2--2--0--|----0--0----0----------|
A|-3--0--0--0-----3--0-----|-----------------0--0--|
E|-------------------------|-----------------------|
                                               

e|-------------------------|------------------------|
B|----------------------3--|------------------------|
G|----------------------2--|------------------------|
D|-2--2--2--2-----2--2--0--|------------------------|
A|-3--0--0--0-----3--0-----|-5--5--3--5b6r----3--0--|
E|-------------------------|------------------------|


e|-------------------------|-------3---------------|-------3--------------|
B|----------------------3--|----3--3----3--------3-|----3--3----3---------|
G|----------------------2--|----2--0----2--------2-|----2--0----2---------|
D|-2--2--2--2-----2--2--0--|----0--0----0--------0-|----0--0----0---------|
A|-3--0--0--0-----3--0--0--|----0--x----0--------0-|----0--x----0---------|
E|-------------------------|-------3---------------|-------3--------------|



[Verse 2]

e|----------------------|------------------------|
B|----------------3-----|------------------------|
G|-2--------5-----2-----|------------------------|
D|-2--------5-----0-----|------------------------| play 3x
A|-0--------3--0--------|----------------2--3--2-|
E|----------------------|----1--2--3--4----------|
  "She gonna blow you all sky high..."



[Prechorus 2] 

e|----------------------|-----------------------|
B|----------------3-----|---------------------3-|
G|-2--------5-----2-----|---------------------2-|
D|-2--------5-----0-----|---------------------0-|
A|-0--------3--0--------|---------------0--3----|
E|----------------------|-----------------------|

e|----------------------|-----------------------|
B|---------3----------3-|---------3----------3--|
G|---------2----------2-|---------2----------2--|
D|---------0----------0-|---------0----------0--|
A|---0--3-------0--3----|---0--3-------0--3-----|
E|----------------------|-----------------------|

         

[Chorus 2]

e|-------------------------|------------------------|
B|----------------------3--|------------------------|
G|----------------------2--|------------------------|
D|-2--2--2--2-----2--2--0--|------------------------|
A|-3--0--0--0-----3--0-----|-5--5--3--5b6r----3--0--|
E|-------------------------|------------------------|
 "With a flick of the switch"

e|----------------------2--|----2--3----2----------|
B|----------------------3--|----3--3----3----------|
G|----------------------2--|----2--0----2----------|
D|-2--2--2--2-----2--2--0--|----0--0----0----------|
A|-3--0--0--0-----3--0-----|-----------------0--0--|
E|-------------------------|-----------------------|
                                               

e|-------------------------|------------------------|
B|----------------------3--|------------------------|
G|----------------------2--|------------------------|
D|-2--2--2--2-----2--2--0--|------------------------|
A|-3--0--0--0-----3--0-----|-5--5--3--5b6r----3--0--|
E|-------------------------|------------------------|

e|-------------------------|-------3---------------|-------3--------------|
B|----------------------3--|----3--3----3--------3-|----3--3----3-------3-|
G|----------------------2--|----2--0----2--------2-|----2--0----2-------2-|
D|-2--2--2--2-----2--2--0--|----0--0----0--------0-|----0--0----0-------0-|
A|-3--0--0--0-----3--0--0--|----0--x----0--------0-|----0--x----0-------0-|
E|-------------------------|-------3---------------|-------3--------------|

e|-------3---------------|-------3--------------|
B|----3--3----3--------3-|----3--3----3---------|
G|----2--0----2--------2-|----2--0----2---------|
D|----0--0----0--------0-|----0--0----0---------|
A|----0--x----0--------0-|----0--x----0---------|
E|-------3---------------|-------3--------------|


[Solo]

Rhythm plays Verse Riff throughout, end goes into prechorus

e|--------------------|---------------------|---------------------------|
B|--------------------|---------------------|-7b8-----7-----------------|
G|----------------7~--|-(7)-----------------|-7b8--5--7-----5--7--------|
D|-7~------5~-----7~--|-(7)-----------------|------------7--------7~----|
A|--------------------|--------x\--scrape---|---------------------------|
E|--------------------|--------x\-----------|---------------------------|
                    

e|--------------------|-----------------------5-|------------------------|
B|---------8b10~------|-8b10----8b10-----8b10---|-5--8-----5-------------|
G|--------------------|-------------------------|-------7-----5--7-------|
D|--------------------|-------------------------|-------------------7~---|
A|--------------------|-------------------------|------------------------|
E|--------------------|-------------------------|------------------------|

e|--------------------|-------------------------------|----------------------------|
B|--------------------|-------------------------------|-10--------10---------13----|
G|-5-5~----0----5p0---|-5p2p0-5p2p0-5p2p0--4b5--------|-12b14-----12b14------15b17-|
D|--------------------|-------------------------------|----------------------------|
A|--------------------|-------------------------------|----------------------------|
E|--------------------|-------------------------------|----------------------------|

e|---------------------------17-------|---------------------------------------|
B|---------------17-------17----20-17-|-------17-20----17---------------------|
G|------------17----19b21-------------|-19b21-------19----b20r19-17----19-----|
D|------19-19-------------------------|-----------------------------19----19~-|
A|------------------------------------|---------------------------------------|
E|------------------------------------|---------------------------------------|

e|-----------------------|------17--------17---------17----------|
B|-------17--------------|-20b22--17-20b22--17-20b21---17-20b22~-|
G|-------17--17\---------|---------------------------------------|
D|-----------------------|---------------------------------------|
A|-----------------------|---------------------------------------|
E|-----------------------|---------------------------------------|

e|-----17------------------------------|-----------------------------|
B|--------20-17----17-20---------------|-----------------------------|
G|--------------19-------19~---17\-----|-----------------------------|
D|-------------------------------------|---------------12----12~\----|
A|-------------------------------------|-12-12-12~-----12----12~\----|
E|-------------------------------------|-----------------------------|


[Transition]

Rhythm Guitar
e|----------------------|---------------------------------|
B|---------3----------3-|---------3---------------3-------|
G|---------2----------2-|---------2---------------2-------|
D|---------0----------0-|---------0---------------0-------|
A|---0--3-------0--3----|---0--3------------0--3----------|
E|----------------------|---------------------------------|
 |
 | Lead Guitar
e|----------------------|-17-----17-----17-----17-----17----|-17---------------|
B|----------------------|-20b22--20b22--20b22--20b22--20b22-|-20b22------------|
G|----------------------|-----------------------------------|------------------|
D|----/12-12-12~--\-----|-----------------------------------|------------------|
A|----/12-12-12~--\-----|-----------------------------------|------------------|
E|----------------------|-----------------------------------|------------------|
   last bar overlaps Final Chorus



[Final Chorus Rhythm]

play this 3x

e|-------------------------|------------------------|
B|----------------------3--|------------------------|
G|----------------------2--|------------------------|
D|-2--2--2--2-----2--2--0--|------------------------|
A|-3--0--0--0-----3--0-----|-5--5--3--5b6r----3--0--|
E|-------------------------|------------------------|
 "With a flick of the switch"

e|----------------------2--|----2--3----2----------|
B|----------------------3--|----3--3----3----------|
G|----------------------2--|----2--0----2----------|
D|-2--2--2--2-----2--2--0--|----0--0----0----------|
A|-3--0--0--0-----3--0-----|-----------------0--0--|
E|-------------------------|-----------------------|
                                               



[Final Chorus Ending Rhythm]

e|-------------------------|------------------------|
B|----------------------3--|------------------------|
G|----------------------2--|------------------------|
D|-2--2--2--2-----2--2--0--|------------------------|
A|-3--0--0--0-----3--0-----|-5--5--3--5b6r----3--0--|
E|-------------------------|------------------------|

e|-------------------------|-------3---------------|-------3--------------|
B|----------------------3--|----3--3----3--------3-|----3--3----3-------3-|
G|----------------------2--|----2--0----2--------2-|----2--0----2-------2-|
D|-2--2--2--2-----2--2--0--|----0--0----0--------0-|----0--0----0-------0-|
A|-3--0--0--0-----3--0--0--|----0--x----0--------0-|----0--x----0-------0-|
E|-------------------------|-------3---------------|-------3--------------|

e|-------3---------------|-------3--------------|
B|----3--3----3--------3-|----3--3----3---------|
G|----2--0----2--------2-|----2--0----2---------|
D|----0--0----0--------0-|----0--0----0---------|
A|----0--x----0--------0-|----0--x----0---------|
E|-------3---------------|-------3--------------|



[Outro Solo]

   starting (2:38)

e|------------------|--------------------|-/12-15-12~---12--12~--|
B|-------5----------|--------------------|-----------------------|
G|--7b9-----7~\-----|--------------------|-----------------------|
D|------------------|--------------------|-----------------------|
A|------------------|--------------------|-----------------------|
E|------------------|--------------------|-----------------------|
   "Flick of the switch"
   
e|-------------------|---------------|------------12--12-|
B|----------------13-|---------------|------15b17--------|
G|-------------------|-14~--14~------|-------------------|
D|-------------------|---------------|-------------------|
A|-------------------|---------------|-------------------|
E|-------------------|---------------|-------------------|
                  She gonna give you...
                                      
e|----------------12----------|-------------------------------|
B|-15b17r------15----15b17\---|------------------20b22--------|
G|--------(14)----------------|----19p17-19p17----------------|
D|----------------------------|---------------19--------------|
A|----------------------------|-------------------------------|
E|----------------------------|-------------------------------|
 blow your brain...

e|-20b22---20p17----------------------------|
B|---------------17-20~-20-17---------------|
G|----------------------------20p19p17------|
D|-------------------------------------19---|
A|------------------------------------------|
E|------------------------------------------|
                        blow you brain...   

e|--------------------------|--------------------|
B|-------20-----------------|-----------------8--|
G|-19b21-----19b21--19b21\--|---17--19--x\---x---|
D|--------------------------|19------------------|
A|--------------------------|--------------------|
E|--------------------------|--------------------|


[Ending]

   Rhythm
e|---------------------------------|------------------------------|
B|---------------------------------|-3----------------------------|
G|-2--------------5----------------|-2-----------------------2----|
D|-2--------------5----------------|-0-----------------------2----|
A|-0--------------3----------------|-0-----------------------0----|
E|---------------------------------|------------------------------|
 |
 | Lead
e|--------5------------------------|------------------------------|
B|-[8]b10---5-8---5----------------|------------------------------|
G|--------------7---5-7b9----------|-------5b7r5~------------2----|
D|------------------------5--------|----7--------------------2----|
A|---------------------------------|-------------------------0----|
E|---------------------------------|------------------------------|



************************************

| x   Dead note
| g   Grace note
| (n) Ghost note
| h   Hammer-on
| p   Pull-off
| r   Release
| >   Accented note
| t   Tapping
| b   Bend
| br  Bend release
| pb  Pre-bend
| pbr Pre-bend release
| /   Slide up
| \   Slide down
| ~   Vibrato
| s   Slap
| P   Pop
| PM  Palm mute
| TR  Trill
| N   Tremolo

************************************
Suggest correction
Creating personal tab
Creating personal tab
You can edit any tab online and save it as your Personal.

You can edit, replace or remove any tab part or add personal notes – all changes will be seen only by you.

Personal tabs can be accessed anytime from any device, even offline.
Learn more »
Give kudos to tab author, rate the tab!
1 2 3 4 5
comments
print report bad tab
guest
You may want to rate the tab now too:
select rating
Wanna post a correction for this tab? Suggest correction