Oops, an error
Loading. Please wait.

Fling Thing Bass Tab

version 1
version 1

Whole song

Interactive

874 views 1 this week
2 commentsread comments
1 2 3 4 5
excellent!
x 5
add to favorites
launch autoscroll
font size
0
reset
guitar tuner
Tab Pro tools
  • play this tab
  • loop segment
  • change instrument
  • show fretboard
  • metronome
×
Best way to learn
"Fling Thing"
Autoscroll
slow
fast
+/-
esc
set tempo
stop
Contributor
AC/DC-Fling Thing
B-Side of "Jailbreak" Single, 1976
Transcribed by: playinbass1432
Email: playinbass1432@hotmail.com

If you dont have the song and need a copy to follow along my tab with, add me on MSN and 
can give it to you.

Tune up 1/4 step

Rest until 0:22

   G                                                     C       G
G|-----------------|-----------------|-----------------|-----------------|
D|-----------------|-----------------|-----------------|-----------------|
A|-----------------|-----------------|-----------------|-3---3-----------|
E|-3---3---3---3---|-3---3---3---3---|-3---3---3---3---|---------3---3---|

   C       B         E       C         G       C         D       G
G|-----------------|-----------------|-----------------|-----------------|
D|-----------------|-2---2-----------|-----------------|-----------------|
A|-3---3---2---2---|---------3---3---|---------3---3---|-5---5-----------|
E|-----------------|-----------------|-3---3-----------|---------3-------|

Rest until 0:59

   G                                                     C       G
G|-----------------|-----------------|-----------------|-----------------|
D|-----------------|-----------------|-----------------|-----------------|
A|-----------------|-----------------|-----------------|-3---3-----------|
E|-3---3---3---3---|-3---3---3---3---|-3---3---3---3---|---------3---3---|

   C       B         E       C         G       C         D       G
G|-----------------|-----------------|-----------------|-----------------|
D|-----------------|-2---2-----------|-----------------|-----------------|
A|-3---3---2---2---|---------3---3---|---------3---3---|-5---5-----------|
E|-----------------|-----------------|-3---3-----------|---------3-------|

Rest until Angus plays the lick at 1:51, and play this until the song fades:

   G   D   F   G D   G   D   F   G D   G   D   F   G D   G   D   G   G D
G|-----------------|-----------------|-----------------|-----------------|
D|---------3-3-5---|---------3-3-5---|---------3-3-5---|---------3-3-5---|
A|-----5-5-------5-|-----5-5-------5-|-----5-5-------5-|-----5-5-------5-|
E|-3-3-------------|-3-3-------------|-3-3-------------|-3-3-------------|
comments
print report bad tab
2 comments total.
0 reply
aig91 wrote on April 3 2008, 12:45 pm

I love this song. Great tab. It is perfect and very detailed. I can tell that a lot of effort was put into this.

0 reply
playinbass1432 wrote on April 3 2008, 01:04 pm

not really its like 1:50 long hahahah

I want to post or [tab]
guest
You may want to rate the tab now too:
select rating
Please do not post tabs as comments. Select "correction" instead!