Oops, an error
Loading. Please wait.

Fly On The Wall Tab

version 2
version 2

Whole song

Interactive

2,573 views 6 this week
6 commentsread comments
1 2 3 4 5
excellent!
x 5
add to favorites
launch autoscroll
font size
0
reset
how to read this tab
guitar tuner
Tab Pro tools
  • play this tab
  • loop segment
  • change instrument
  • show fretboard
  • metronome
×
Best way to learn
"Fly On The Wall"
Autoscroll
slow
fast
+/-
esc
set tempo
stop
Contributor
AC/DC - Fly on the wall (1985)

Tuning: Standart
Mail: degot@bk.ru

x - muted note

Intro
e|--------------------------------------------------------|
B|--------------------------------------------------------|
G|--2-------2---------------------------------------------|
D|--2-------2---------------------------------------------|
A|--0---3p2p0(let_ring)-----------------------------------|
E|--------------------------------------------------------| once

e|-------333--222--333-------------------------------------------------------|
B|-------333--333--333-------------------------------------------------------|
G|--222--000--222--000-------------------------------------------------------|
D|--222--000--000--000-------------------------------------------------------|
A|--000--xxx-------xxx-------------------------------------------------------|
E|-------333-------333-------------------------------------------------------| once
Then play these 2 together (Angus and Mal) x5


Main theme
e|-------------3-------------|    |-------333--222--333----------------------|
B|-------------3-------------|    |-------333--333--333----------------------|
G|-2-----------0-------------|    |--222--000--222--000----------------------|
D|-2-----------0-------------|    |--222--000--000--000----------------------|
A|-0(let_ring)-x(let_ring)---|    |--000--xxx-------xxx----------------------|
E|-------------3-------------|x2  |-------333-------333----------------------|x4

                                                                        
Chorus                                                                          
I was trapped...   like a fly on the wall...  I was caged...  like a zoo animal 
e|-------------------3--2--33--2-3------------------------------3--2--33--2-3----2-2--------|
B|-------------------3--3--33--3-3------------------------------3--3--33--3-3----3-3--------|
G|----------------2--0--2--00--2-0---------------------------2--0--2--00--2-0----2-2--------|
D|----------------2--0--0--00--0-0---------------------------2--0--0--00--0-0----0-0--------|
A|----------------0--x-----xx----x(let_ring)-----------------0--x-----xx----x---------------|
E|-------------------3-----33----3------------------------------3-----33----3---------------|x2

Then main theme,
then chorus again,
then few G and A chords and solo,


h - hammer-on
p - pull-off
+ - harmonic note
^ - 1/2 bend
^^ - full bend ( +^^ means bend harmonic note)
~ - vibrato
\ - slide


Solo                                                     [Half_muted_notes]
e|---------------------------------------------------------------------------------5-------------|
B|---10+~-----5+--------------------------------5---5~-----------------------8^^-8---------------|
G|--------------x-5+-5~~\--5^-------------7^^-7^--7^-----5x--------5x-x-7p5----------------------|
D|---------------------------7p5h7x7+~\--------------------x-xx-7x-------------------------------|
A|-----------------------------------------------------------------------------------------------|
E|-----------------------------------------------------------------------------------------------|

      <------------Fast------------>
e|----5h8p7p5-8p7p5-------------------5+-------------------15----15----15----15------------------|
B|-----------------8--5h8p7p5-8p7p5------------------15^^----15^^--15^^--15^^--15^^-15^^15p13----|
G|---------------------------------7-----7+^7p5+-------------------------------------------------|
D|-----------------------------------------------------------------------------------------------|
A|-----------------------------------------------------------------------------------------------|
E|-----------------------------------------------------------------------------------------------|

                                                     <--------Fast------->
e|---------10-10-----10-10----10---10---10---10------10------------------------------------------|
B|----13^^-------13^^-------13---13---13---13---13^^---13p12p10-13p12p10-------13----13-13--13---|
G|----------------------------------------------------------------------12-12^^--12^^---12^^12^^-|
D|-----------------------------------------------------------------------------------------------|
A|-----------------------------------------------------------------------------------------------|
E|-----------------------------------------------------------------------------------------------|

Then play chorus x2

Couple of G and A chords and thats it!
comments
print report bad tab
6 comments total. Showing first comments.
+1 reply
livewire76 wrote on December 16 2010, 04:46 am

Nice one.

First time ive seen this song with the main riff tabbed correctly. Havnt tried the solo yet but so far, so good.. nice work.

+1 reply
atmetcalfe wrote on May 8 2013, 01:06 am

I think the opening bit is should be:

|------------------------|
|------------------------|
|--2------2--------------|
|--2------2--------------|
|--O--3p2pO--------------|
|------------------------|

0 reply
degot88 wrote on May 10 2013, 04:29 am, edited on October 3 2015, 01:17 pm

fixed

I want to post or [tab]
guest
You may want to rate the tab now too:
select rating
Please do not post tabs as comments. Select "correction" instead!