Oops, an error
Loading. Please wait.

For Those About To Rock tab

version 2
version 2

Whole song

Interactive

by AC/DC
131,012 views 69 this week
21 commentsread comments
1 2 3 4 5
x 51
add to favorites
×
Save as Personal and add changes to this tab that will be seen only by you. Learn more ›
×
You can save this tab as Personal to edit and correct it or add notes. All changes will be seen only by you. Learn more »
launch autoscroll
font size
0
reset
how to read this tab
guitar tuner
backing track
0:00
0:00
edit
Autoscroll
slow
fast
+/-
esc
set tempo
stop
Author
Difficulty
FOR THOSE ABOUT TO ROCK (WE SALUTE YOU)
                              As recorded by AC/DC
          (From the 1981 Album FOR THOSE ABOUT TO ROCK (WE SALUTE YOU))

Words and Music by Young/Young/Johnson

           A                    G                    D                   D/A
      x 0 2 2 2 x          3 5 5 4 3 3          x x 0 2 3 2          x 0 4 2 3 x

          B5                   G5                    B                  D/F#
      x 2 4 4 x x          3 x 0 0 3 3          x 2 4 4 4 x          2 x 0 2 3 2

           E                  B5/A
      0 2 2 1 x x          x 0 4 4 x x

Gtr I (E A D G B E) - 'Angus'
Gtr II (E A D G B E) - 'Malcolm'
Gtr III (E A D G B E) - ' Solo Gtr'
Gtr IV (E A D G B E) - 'Cannon'

   
[INTRO]

     Q=128
     B
    4/4
     Gtr I
      E  E  E  E  E  E  E  E    E  E  E  E  E  E  E  E
e||--11-11-11-11-11-11-11-11-|-11-11-11-11-11-11-11-11-|
B||o-12-12-12-12-12-12-12-12-|-12-12-12-12-12-12-12-12-|
G||--11-11-11-11-11-11-11-11-|-11-11-11-11-11-11-11-11-|
D||--------------------------|-------------------------|
A||o-------------------------|-------------------------|
E||--------------------------|-------------------------|


   Bm                B5         Bsus4
    E  E  E  E  E  E  E  E    E  E  E  E  E  E  E  E
e|-10-10-10-10-10-10-14-14-|-14-12-12-12-12-12-12-12---||
B|-12-12-12-12-12-12-12-12-|-12-12-12-12-12-12-12-12--o||
G|-11-11-11-11-11-11-11-11-|-11-11-11-11-11-11-11-11---||
D|-------------------------|---------------------------||
A|-------------------------|--------------------------o||
E|-------------------------|---------------------------||


   B5                                     G5
  4/4
    E  E  E  E  E  E  E  E    E   E  E  E  E  E  E  E
e|-11-11-11-11-11-11-11-11-|-11--11-11-11-11-11-11-11-|
B|-12-12-12-12-12-12-12-12-|-12--12-12-12-12-12-12-12-|
G|-11-11-11-11-11-11-11-11-|-11--11-11-11-11-11-11-11-|
D|-------------------------|--------------------------|
A|-------------------------|--------------------------|
E|-------------------------|--------------------------|
|
 | Gtr II
 |  W                        +H            E  E  Q
e|-------------------------|--------------------------|
B|-------------------------|--------------------------|
G|--4----------------------|-(4)-----------------0----|
D|--4----------------------|-(4)--------------0-------|
A|--2----------------------|-(2)----------------------|
E|-------------------------|---------------3----------|


   D/F#     E
    E  E  E  E  E   E  E  E    E   E  E  E  E  E  E  E
e|-10-10-10-10-10--10-14-14-|-14--12-12-12-12-12-12-12-|
B|-12-12-12-12-12--12-12-12-|-12--12-12-12-12-12-12-12-|
G|-11-11-11-11-11--11-11-11-|-11--11-11-11-11-11-11-11-|
D|--------------------------|--------------------------|
A|--------------------------|--------------------------|
E|--------------------------|--------------------------|
 |
 |  Q     E  E +H             +W
e|--------------------------|--------------------------|
B|--------------------------|--------------------------|
G|--2--------1-(1)----------|-(1)----------------------|
D|--0--------2-(2)----------|-(2)----------------------|
A|-----------2-(2)----------|-(2)----------------------|
E|--2-----x--0-(0)----------|-(0)----------------------|


   B5
  4/4
    E  E  E  E  E  E  E  E    E   E  E  E  E  E  E  E
e|-11-11-11-11-11-11-11-11-|-11--11-11-11-11-11-11-11-|
B|-12-12-12-12-12-12-12-12-|-12--12-12-12-12-12-12-12-|
G|-11-11-11-11-11-11-11-11-|-11--11-11-11-11-11-11-11-|
D|-------------------------|--------------------------|
A|-------------------------|--------------------------|
E|-------------------------|--------------------------|
 |
 |  W                        +W
e|-------------------------|--------------------------|
B|-------------------------|--------------------------|
G|--4----------------------|-(4)----------------------|
D|--4----------------------|-(4)----------------------|
A|--2----------------------|-(2)----------------------|
E|-------------------------|--------------------------|


   G5        D/F#      E
    E   E  E  E  E   E  E  E    E   E  E  E  E  E  E  E
e|-10--10-10-10-10--10-14-14-|-14--12-12-12-12-12-12-12-|
B|-12--12-12-12-12--12-12-12-|-12--12-12-12-12-12-12-12-|
G|-11--11-11-11-11--11-11-11-|-11--11-11-11-11-11-11-11-|
D|---------------------------|--------------------------|
A|---------------------------|--------------------------|
E|---------------------------|--------------------------|
 |
 |  Q.        E +Q      Q      +W
e|--3------------------------|--------------------------|
B|--3---------3-(3)----------|--------------------------|
G|--0---------2-(2)-----1----|-(1)----------------------|
D|--0---------0-(0)-----2----|-(2)----------------------|
A|----------------------2----|-(2)----------------------|
E|--3---------2-(2)-----0----|-(0)----------------------|


   B5        B5/A                           G5
  4/4
    E   E  E  E  E   E  E  E    E   E  E  E  E  E  E  E
e|-11--11-11-11-11--11-11-11-|-11--11-11-11-11-11-11-11-|
B|-12--12-12-12-12--12-12-12-|-12--12-12-12-12-12-12-12-|
G|-11--11-11-11-11--11-11-11-|-11--11-11-11-11-11-11-11-|
D|---------------------------|--------------------------|
A|---------------------------|--------------------------|
E|---------------------------|--------------------------|
 |
 |  Q.        E +H             +H            E  E  Q
e|---------------------------|--------------------------|
B|---------------------------|--------------------------|
G|--4---------4-(4)----------|-(4)-----------------0----|
D|--4---------4-(4)----------|-(4)--------------0-------|
A|--2---------0-(0)----------|-(0)----------------------|
E|---------------------------|---------------3----------|


   D/F#     E
    E  E  E  E  E   E  E  E    E   E  E  E  E  E  E  E
e|-10-10-10-10-10--10-14-14-|-14--12-12-12-12-12-12-12-|
B|-12-12-12-12-12--12-12-12-|-12--12-12-12-12-12-12-12-|
G|-11-11-11-11-11--11-11-11-|-11--11-11-11-11-11-11-11-|
D|--------------------------|--------------------------|
A|--------------------------|--------------------------|
E|--------------------------|--------------------------|
 |
 |  E  E  E  E +H             +W
e|--------------------------|--------------------------|
B|--------------------------|--------------------------|
G|--------------------------|--------------------------|
D|--------0--2-(2)----------|-(2)----------------------|
A|-----0-----2-(2)----------|-(2)----------------------|
E|--2--------0-(0)----------|-(0)----------------------|


   B5        B5/A
  4/4
    E   E  E  E  E   E  E  E    E   E  E  E  E  E  E  E
e|-11--11-11-11-11--11-11-11-|-11--11-11-11-11-11-11-11-|
B|-12--12-12-12-12--12-12-12-|-12--12-12-12-12-12-12-12-|
G|-11--11-11-11-11--11-11-11-|-11--11-11-11-11-11-11-11-|
D|---------------------------|--------------------------|
A|---------------------------|--------------------------|
E|---------------------------|--------------------------|
 |
 |  Q.        E +H             +W
e|---------------------------|--------------------------|
B|---------------------------|--------------------------|
G|--4---------4-(4)----------|-(4)----------------------|
D|--4---------4-(4)----------|-(4)----------------------|
A|--2---------0-(0)----------|-(0)----------------------|
E|---------------------------|--------------------------|


   G5        D/F#      E
    E   E  E  E  E   E  E  E    E   E  E  E  E  E  E  E
e|-10--10-10-10-10--10-14-14-|-14--12-12-12-12-12-12-12-|
B|-12--12-12-12-12--12-12-12-|-12--12-12-12-12-12-12-12-|
G|-11--11-11-11-11--11-11-11-|-11--11-11-11-11-11-11-11-|
D|---------------------------|--------------------------|
A|---------------------------|--------------------------|
E|---------------------------|--------------------------|
 |
 |  Q.        E +Q      Q      +W
e|--3------------------------|--------------------------|
B|--3---------3-(3)----------|--------------------------|
G|--0---------2-(2)-----1----|-(1)----------------------|
D|--0---------0-(0)-----2----|-(2)----------------------|
A|----------------------2----|-(2)----------------------|
E|--3---------2-(2)-----0----|-(0)----------------------|


    E   E  E  E  E  E  E  E    E   E  E  E  E  E  E  E
e|-12--12-12-12-12-12-12-12-|-12--12-12-12-12-12-12-12-|
B|-12--12-12-12-12-12-12-12-|-12--12-12-12-12-12-12-12-|
G|-11--11-11-11-11-11-11-11-|-11--11-11-11-11-11-11-11-|
D|--------------------------|--------------------------|
A|--------------------------|--------------------------|
E|--------------------------|--------------------------|
 |
 | +W                         +W
e|--------------------------|--------------------------|
B|--------------------------|--------------------------|
G|-(1)----------------------|-(1)----------------------|
D|-(2)----------------------|-(2)----------------------|
A|-(2)----------------------|-(2)----------------------|
E|-(0)----------------------|-(0)----------------------|


   B5   B5/A              G5
   Q.   E +H       +H     H
e|---------------|--------3----|
B|---------------|--------3----|
G|-4----4-(4)----|-(4)----0----|
D|-4----4-(4)----|-(4)----0----|
A|-2----0-(0)----|-(0)---------|
E|---------------|--------3----|
 |
 | Q.   E +H       +H     H
e|---------------|--------3----|
B|---------------|--------3----|
G|-4----4-(4)----|-(4)----0----|
D|-4----4-(4)----|-(4)----0----|
A|-2----0-(0)----|-(0)---------|
E|---------------|--------3----|


   D/F# E                             B5   B5/A              G5
   Gtrs I, II
   Q.   E +H       +E  E E E E Q.     Q.   E +H       +H     H
e|---------------|-----------0------|---------------|--------3----|
B|-3-------------|-----------0-0----|---------------|--------3----|
G|-2----1-(1)----|-(1)-0-0-0-0------|-4----4-(4)----|-(4)----0----|
D|-0----2-(2)----|-(2)-2-0-2---2----|-4----4-(4)----|-(4)----0----|
A|------2-(2)----|-(2)--------------|-2----0-(0)----|-(0)---------|
E|-2----0-(0)----|-(0)--------------|---------------|--------3----|


   D/F# E                              B5   B5/A              G5
   Q.   E +H       +E  E E E E E E E   Q.   E +H       +H     H
e|---------------|---------7-7-7-----|---------------|--------3----|
B|-3-------------|---------7-7-7-----|---------------|--------3----|
G|-2----1-(1)----|-(1)-----------0---|-4----4-(4)----|-(4)----0----|
D|-0----2-(2)----|-(2)-2s9-----------|-4----4-(4)----|-(4)----0----|
A|------2-(2)----|-(2)-------------0-|-2----0-(0)----|-(0)---------|
E|-2----0-(0)----|-(0)---------------|---------------|--------3----|


   D/F# E                             B5   B5/A              G5
   Q.   E +H       +E  E E E E Q.     Q.   E +H       +H     H
e|---------------|-----------0------|---------------|--------3----|
B|-3-------------|-----------0-0----|---------------|--------3----|
G|-2----1-(1)----|-(1)-0-0-0-0------|-4----4-(4)----|-(4)----0----|
D|-0----2-(2)----|-(2)-2-0-2---2----|-4----4-(4)----|-(4)----0----|
A|------2-(2)----|-(2)--------------|-2----0-(0)----|-(0)---------|
E|-2----0-(0)----|-(0)--------------|---------------|--------3----|


                               VERSE
   D/F# E                       B5       D/A     A         E
   Q.   E +H       +W           H     Q  E E   E E Q  Q  E E
e|---------------|------------|--------------|----------------|
B|-3-------------|------------|----------3-3-|-3-2-------2----|
G|-2----1-(1)----|-(1)--------|-4\-------2-2-|-2-2-------2-1--|
D|-0----2-(2)----|-(2)--------|-4\-------4-4-|-4-2-------2-2--|
A|------2-(2)----|-(2)--------|-2\-------0-0-|-0-0-------0-2--|
E|-2----0-(0)----|-(0)--------|--------------|-------------0--|


                G5   E      B5       D/A     A         E
   +W           H    H      H     Q  E E   E E Q  Q  E E
e|------------|-3---------|--------------|----------------|
B|------------|-3---------|----------3-3-|-3-2-------2----|
G|-(1)--------|-0----1----|-4\-------2-2-|-2-2-------2-1--|
D|-(2)--------|-0----2----|-4\-------4-4-|-4-2-------2-2--|
A|-(2)--------|------2----|-2\-------0-0-|-0-0-------0-2--|
E|-(0)--------|-3----0----|--------------|-------------0--|


                G5   E        B5       D/A
   +W           H    H        H     Q  E E
e|------------|-3---------||---------------|
B|------------|-3---------||o----------3-3-|
G|-(1)--------|-0----1----||--4\-------2-2-|
D|-(2)--------|-0----2----||--4\-------4-4-|
A|-(2)--------|------2----||o-2\-------0-0-|
E|-(0)--------|-3----0----||---------------|


     A         E                G5   E
   E E Q  Q  E E   +W           H    H
e|---------------|------------|-3---------|
B|-3-2-------2---|------------|-3---------|
G|-2-2-------2-1-|-(1)--------|-0----1----|
D|-4-2-------2-2-|-(2)--------|-0----2----|
A|-0-0-------0-2-|-(2)--------|------2----|
E|-------------0-|-(0)--------|-3----0----|


   B5       D/A     A         E
   H     Q  E E   E E Q  Q  E E   +W
e|--------------|---------------|--------|
B|----------3-3-|-3-2-------2---|--------|
G|-4\-------2-2-|-2-2-------2-1-|-(1)----|
D|-4\-------4-4-|-4-2-------2-2-|-(2)----|
A|-2\-------0-0-|-0-0-------0-2-|-(2)----|
E|--------------|-------------0-|-(0)----|


              [CHORUS]

   G5   E      B5   B5/A              G5
   H    H      Q.   E +H       +H     H
e|-3---------|---------------|--------3----|
B|-3---------|---------------|--------3----|
G|-0----1----|-4----4-(4)----|-(4)----0----|
D|-0----2----|-4----4-(4)----|-(4)----0----|
A|------2----|-2----0-(0)----|-(0)---------|
E|-3----0----|---------------|--------3----|


                                     1.
   D/F# E                             B5   B5/A
   Q.   E +H       +E  E E E E Q.     Q.   E +H
e|---------------|-----------0------|---------------|
B|-3-------------|-----------0-0----|---------------|
G|-2----1-(1)----|-(1)-0-0-0-0------|-4----4-(4)----|
D|-0----2-(2)----|-(2)-2-0-2---2----|-4----4-(4)----|
A|------2-(2)----|-(2)--------------|-2----0-(0)----|
E|-2----0-(0)----|-(0)--------------|---------------|


          G5     D/F# E
   +H     H      Q.   E +H       +H     H
e|--------3----|---------------|--------------||
B|--------3----|-3-------------|-------------o||
G|-(4)----0----|-2----1-(1)----|-(1)----------||
D|-(4)----0----|-0----2-(2)----|-(2)----------||
A|-(0)---------|------2-(2)----|-(2)---------o||
E|--------3----|-2----0-(0)----|-(0)----------||


   2.
   B5   B5/A              G5     D/F# E
   Q.   E +H       +H     H      Q.   E +H       +E  E E E E E E E
e|---------------|--------3----|---------------|---------7-7-7------|
B|---------------|--------3----|-3-------------|---------7-7-7------|
G|-4----4-(4)----|-(4)----0----|-2----1-(1)----|-(1)-----------0----|
D|-4----4-(4)----|-(4)----0----|-0----2-(2)----|-(2)-2s9------------|
A|-2----0-(0)----|-(0)---------|------2-(2)----|-(2)-------------0--|
E|---------------|--------3----|-2----0-(0)----|-(0)----------------|


   B5   B5/A              G5     D/F# E
   Q.   E +H       +H     H      Q.   E +H       +E  E E E E Q.
e|---------------|--------3----|---------------|-----------0-------|
B|---------------|--------3----|-3-------------|-----------0-0-----|
G|-4----4-(4)----|-(4)----0----|-2----1-(1)----|-(1)-0-0-0-0-------|
D|-4----4-(4)----|-(4)----0----|-0----2-(2)----|-(2)-2-0-2---2-----|
A|-2----0-(0)----|-(0)---------|------2-(2)----|-(2)---------------|
E|---------------|--------3----|-2----0-(0)----|-(0)---------------|


                                [1ST SOLO]

   B5   B5/A              G5     D/F#        E
   Gtr II
   Q.   E +H       +H     H      Q.            E   +H
e|---------------|--------3----|--------------------------|
B|---------------|--------3----|-3------------------------|
G|-4----4-(4)----|-(4)----0----|-2-------------1---(1)----|
D|-4----4-(4)----|-(4)----0----|-0-------------2---(2)----|
A|-2----0-(0)----|-(0)---------|---------------2---(2)----|
E|---------------|--------3----|-2-------------0---(0)----|
 |
 | Gtr I                            Gtr III
 | Q.   E +H       +H     H      Q.    a      +E   +H
e|---------------|--------3----|--------------------------|
B|---------------|--------3----|-3----10b12==(10)-(10)----|
G|-4----4-(4)----|-(4)----0----|-2------------------------|
D|-4----4-(4)----|-(4)----0----|-0------------------------|
A|-2----0-(0)----|-(0)---------|--------------------------|
E|---------------|--------3----|-2------------------------|


    +W           +W                     +W
e|-------------|----------------------|------------------------------------||
B|-------------|----------------------|------------------------------------||
G|--(1)--------|-(1)------------------|-(1)--------------------------------||
D|--(2)--------|-(2)------------------|-(2)--------------------------------||
A|--(2)--------|-(2)------------------|-(2)--------------------------------||
E|--(0)--------|-(0)------------------|-(0)--------------------------------||
 |
 | Gtr III
 |                |--3---|  |--3--|      |--3---|  |--3--|  |--3--|
 |  +W            Q   Q  Q  Q  Q  Q      E   E  E  E  E  E  E  E  E  Q
e|-------------|----------------------|------------------------------------||
B|-(10)--------|-10--10-10-10-10-10---|-10--10-10-10-10-10-10-10-10-10r\---||
G|-------------|----------------------|------------------------------------||
D|-------------|----------------------|------------------------------------||
A|-------------|----------------------|------------------------------------||
E|-------------|----------------------|------------------------------------||


  A         D/A        A          G                 D          A   D/A A
  Gtr II
        Q   Q           H       E Q.           E    Q.         Q   Q   H
        |   |           |       | |            |    |          |   |   |
        /   /           /       / /            /    /          /   /   /

   Gtr III
                         ~~~                                            ~~
   a    +Q.    a    +E  +H       E S  S S S S S S E.    +Q      E E E E H
e|-----------------------------|-5----------------------------|---------------|
B|-8b10-(8)----8b10-(8)-(8)----|---8--5---5-------------------|---------------|
G|-----------------------------|--------8---8-7-5-------------|---------------|
D|-----------------------------|------------------7-----(7)\--|---5---x-7\----|
A|-----------------------------|------------------------------|---------------|
E|-----------------------------|------------------------------|---------------|


          G       D
   E       Q.     H
   |       |      |
   /       /      /

                  ~~
   E a    +E  E E Q.   E
e|-------------------------|
B|-------------------------|
G|---7b9==(7)r7p5-7----7b9-|
D|-------------------------|
A|-------------------------|
E|-------------------------|


  A         D/A           A
   Q        Q             H
   |        |             |
   /        /             /

                                        |------5------|
  +S  S S S S a   +S  S S S S a   +S  S S S S a   +S  S
|-------5---------------5---------------5----------------|
|-----5---8p5---------5---8-5---------5---8p5---------5--|
|-(7)---------7b9-(7)---------7b9-(7)---------7b9-(7)----|
|--------------------------------------------------------|
|--------------------------------------------------------|
|--------------------------------------------------------|


        G                           D        A        D/A      A
  E     Q.                   E       Q.       Q        Q         H
  |     |                    |       |        |        |         |
  /     /                    /       /        /        /         /

                                        ~                 ~~~~~~~~~~
  |-------5--------|
  S S S    a   +S  S S S S S E a    +E  Q     Q  a    +S  E  S  +Q    E  E
|-5------------------5-------5-------------|-10--8b9==(8)r8--------------------|
|---8-5------------5---8-5-----7b8==(7)r7--|----------------10-(10)--10-12b13==|
|----------7b9-(7)---------7---7b8==(7)r7--|-----------------------------------|
|------------------------------------------|-----------------------------------|
|------------------------------------------|-----------------------------------|
|------------------------------------------|-----------------------------------|


          G                          D
    E      Q.                          H
    |      |                           |
    /      /                           /

    +S   S  E   a     +E   a      +E   +Q     E  a      +E
e|----------------------------------------------------------|
B|-(12)r12p10--12b13-(12)-12b13==(12)-(12)r--12-12b14==(12)-|
G|----------------------------------------------------------|
D|----------------------------------------------------------|
A|----------------------------------------------------------|
E|----------------------------------------------------------|


   A          D/A         A
     Q         Q            H
     |         |            |
     /         /            /

    +E    E    E       E   +E    E   a      Q
e|-------12---12------12--(12)\---------------------|
B|-(12)-(12)r-12b14==(12)-(12)r\---/13b15==13pb17===|
G|--------------------------------------------------|
D|--------------------------------------------------|
A|--------------------------------------------------|
E|--------------------------------------------------|


         G                           D
     E    Q.                    E      Q.
     |    |                     |      |
     /    /                     /      /

    +E    E   a      +S   S  E  E     +E   E     +E
e|---------------------------------------------------|
B|-(13)r-13--13b15==(13)r13p10-13b15-(13)-13b15-(13)-|
G|---------------------------------------------------|
D|---------------------------------------------------|
A|---------------------------------------------------|
E|---------------------------------------------------|


   A               D/A      A
    Q               Q       H
    |               |       |
    /               /       /

                                    ~~~~~~~
    E      +S    S  E  S  S S  S S  S  +Q
e|------------------------------------------|
B|-13b15==(13)r-13h15-13-15---13---15-(15)--|
G|------------------------------------------|
D|------------------------------------------|
A|------------------------------------------|
E|------------------------------------------|


     G                  D
   E  Q.                 H
   |  |                  |
   /  /                  /

                         ~~
   E  E   a      +E   E  Q    E  E
e|---------------------------------|
B|---10--12b13==(12)r12-10------10-|
G|--------------------------/11----|
D|---------------------------------|
A|---------------------------------|
E|---------------------------------|


   A             D/A     A                          G         D
     Q             Q       H                     E  Q.    E   Q.
     |             |       |                     |  |     |   |
     /             /       /                     /  /     /   /

                                                       ~         ~
    +E   E  a     +E   E  +Q    E  a      E     +E  E  Q  S S E  Q
e|---------------------------------------12--|-(12)------------------|
B|-(10)-10------------10-(10)\----12b13-(12)-|-(12)-8--8-------------|
G|---------12b14-(12)------------------------|------------9s7-5--7---|
D|-------------------------------------------|-----------------------|
A|-------------------------------------------|-----------------------|
E|-------------------------------------------|-----------------------|


                                                             [3RD VERSE]

   A   D/A A               G             D                     B5       D/A
   Q   Q    H        E       Q.            H                   H     Q  E E
   |   |    |        |       |             |                   |        | |
   /   /    /        /       /             /                   /        / /

                                                               Gtr I
   E E E E +H        E      +Q     E      +Q     a     +Q      H     Q  E E
e|----------------|-----------------------------------------||--------------|
B|----------------|-20b22==(20)r--20b22==(20)r--20b22-(20)--||----------3-3-|
G|-5--------------|-----------------------------------------||-4\-------2-2-|
D|---7-7-7-(7)----|-----------------------------------------||-4\-------4-4-|
A|----------------|-----------------------------------------||-2\-------0-0-|
E|----------------|-----------------------------------------||--------------|


     A         E                G5   E      B5       D/A
   Gtrs I, II
   E E Q  Q  E E   +W           H    H      H     Q  E E
e|---------------|------------|-3---------|---------------|
B|-3-2-------2---|------------|-3---------|----------3-3--|
G|-2-2-------2-1-|-(1)--------|-0----1----|-4\-------2-2--|
D|-4-2-------2-2-|-(2)--------|-0----2----|-4\-------4-4--|
A|-0-0-------0-2-|-(2)--------|------2----|-2\-------0-0--|
E|-------------0-|-(0)--------|-3----0----|---------------|


     A         E                G5   E
   E E Q  Q  E E   +W           H    H
e|---------------|------------|-3---------|
B|-3-2-------2---|------------|-3---------|
G|-2-2-------2-1-|-(1)--------|-0----1----|
D|-4-2-------2-2-|-(2)--------|-0----2----|
A|-0-0-------0-2-|-(2)--------|------2----|
E|-------------0-|-(0)--------|-3----0----|


[CANNON CHORUS]

   B5                            G5                           D
   Gtr II
   Q  Q  H      W                  Q.           E   +Q         Q
   |                               |            |    |         |
   /                               /            /    /         /

   Gtr III
   Q  Q  H      W           a      Q.    a      E   +Q   a     Q
e|------------|----------|------------------------------------------|
B|------------|----------|---------8------------8---(8)--------7----|
G|-4----------|----------|-10b12-(10)---10b12-(10)-(10)--9b11-(9)---|
D|-4----------|----------|------------------------------------------|
A|-2----------|----------|------------------------------------------|
E|------------|----------|------------------------------------------|
 |
 | Gtr IV
 | W            W                  W
e|------------|-0--------|------------------------------------------|
B|------------|-0--------|------------------------------------------|
G|------------|-0--------|------------------------------------------|
D|------------|-0--------|------------------------------------------|
A|------------|-0--------|------------------------------------------|
E|------------|-0--------|------------------------------------------|


           A              B5
   +E       E  +H.        Q  Q  H      W     |       |   |         |
    /       /   /         /
 
   +E  a    E  +H.        Q  Q  H      W
e|----------------------|------------|------|
B|-(7)------5--(5)------|------------|------|
G|-(9)-7b9-(7)-(7)------|-4----------|------|
D|----------------------|-4----------|------|
A|----------------------|-2----------|------|
E|----------------------|------------|------|
|
 |  W                     W            W
e|----------------------|------------|-0----|
B|----------------------|------------|-0----|
G|----------------------|------------|-0----|
D|----------------------|------------|-0----|
A|----------------------|------------|-0----|
E|----------------------|------------|-0----|


   G5                                 D
           Q.           E   +Q         Q
           |            |    |         |
           /            /    /         /
 
    a      Q.    a      E   +Q   a     Q
e|-----------------------------------------|
B|---------8------------8---(8)--------7---|
G|-10b12-(10)---10b12-(10)-(10)--9b11-(9)--|
D|-----------------------------------------|
A|-----------------------------------------|
E|-----------------------------------------|
 |
 |         W
e|-----------------------------------------|
B|-----------------------------------------|
G|-----------------------------------------|
D|-----------------------------------------|
A|-----------------------------------------|
E|-----------------------------------------|


           A              B5
   +E       E  +H.        Q  Q  H      W
    |       |   |         |
    /       /   /         /

   +E  a    E  +H.        Q  Q  H      W
e|----------------------|------------|------|
B|-(7)------5--(5)------|------------|------|
G|-(9)-7b9-(7)-(7)------|-4----------|------|
D|----------------------|-4----------|------|
A|----------------------|-2----------|------|
E|----------------------|------------|------|
 |
 |  W                     W            W
e|----------------------|------------|-0----|
B|----------------------|------------|-0----|
G|----------------------|------------|-0----|
D|----------------------|------------|-0----|
A|----------------------|------------|-0----|
E|----------------------|------------|-0----|


   G5                                  D
           Q.           E   +Q           Q
           |            |    |           |
           /            /    /           /

    a      Q.    a      E   +Q    a      Q
e|--------10-----------10--(10)---------14---|
B|-13b15-(13)---13b15-(13)-(13)--17b19-(17)--|
G|-------------------------------------------|
D|-------------------------------------------|
A|-------------------------------------------|
E|-------------------------------------------|


              A                B5
    +E          E   +H.        Q  Q  H
     |          |    |         |
     /          /    /         /

    +E   a      E   +H.        Q  Q  H
e|-(14)--------12--(12)------|------------|
B|-(17)-15b17-(15)-(15)------|------------|
G|---------------------------|-4----------|
D|---------------------------|-4----------|
A|---------------------------|-2----------|
E|---------------------------|------------|


            [2ND SOLO]

                    G5
   W                  Q.           E   +Q           Q
                      |            |    |           |
                      /            /    /           /

   W           a      Q.    a      E   +Q    a      Q
e|----------|--------10-----------10--(10)---------10---|
B|----------|-13b15-(13)---13b15-(13)-(13)--13b15-(13)--|
G|----------|-------------------------------------------|
D|----------|-------------------------------------------|
A|----------|-------------------------------------------|
E|----------|-------------------------------------------|
 |
 | Gtr IV
 | W                  W
e|-0--------|-------------------------------------------|
B|-0--------|-------------------------------------------|
G|-0--------|-------------------------------------------|
D|-0--------|-------------------------------------------|
A|-0--------|-------------------------------------------|
E|-0--------|-------------------------------------------|


                                 D
    +E          Q.           Q   Q
     |          |            |   |
     /          /            /   /

    +E   a      Q.    a      H
e|-(10)--------10-----------10------|
B|-(13)-13b15-(13)---13b15-(13)-----|
G|----------------------------------|
D|----------------------------------|
A|----------------------------------|
E|----------------------------------|
 |
 |   W
e|----------------------------------|
B|----------------------------------|
G|----------------------------------|
D|----------------------------------|
A|----------------------------------|
E|----------------------------------|


   A
           Q.           E   +Q           Q
           |            |    |           |
           /            /    /           /

    a      Q.    a      E   +Q    a      Q
e|---------9------------9---(9)----------9---|
B|-12b14-(12)---12b14-(12)-(12)--12b14-(12)--|
G|-------------------------------------------|
D|-------------------------------------------|
A|-------------------------------------------|
E|-------------------------------------------|


                                          B5
    +E          Q.           H               Q   E          E   +E   E  E  E
     |          |            |               |   |          |    |   |  |  |
     /          /            /               /   /          /    /   /  /  /

    +E   a      Q.    a      H        a      Q   E  a       E    E   E  E  E
e|--(9)---------9------------9-----|---------7--------------7----7---7--7--7--|
B|-(12)-12b14-(12)---12b14-(12)----|-10b12-(10)----10b12==(10)-(10)-10-10-10r-|
G|---------------------------------|------------------------------------------|
D|---------------------------------|------------------------------------------|
A|---------------------------------|------------------------------------------|
E|---------------------------------|------------------------------------------|


   Q            E  E         +E  E E E
   |            |  |          |  | | |
   /            /  /          /  / / /

   E  a      E  E  E   a      H
e|-----------7--7--7----------7--------|
B|---10b12==10-10-10r-10b12-(10)-------|
G|-------------------------------------|
D|-------------------------------------|
A|-------------------------------------|
E|-------------------------------------|


         G5                           D              A
           Q.           E   +Q         Q     +E       Q   E      E  E E E
           |            |    |         |      |       |   |      |  | | |
           /            /    /         /      /       /   /      /  / / /

    a      Q.    a      E   +Q   a     Q     +E  a    Q.    a    H
e|-----------------------------------------|------------------------------|
B|---------8------------8---(8)--------7---|-(7)------5----------5--------|
G|-10b12-(10)---10b12-(10)-(10)--9b11-(9)--|-(9)-7b9-(7)----7b9-(7)-------|
D|-----------------------------------------|------------------------------|
A|-----------------------------------------|------------------------------|
E|-----------------------------------------|------------------------------|


   B5
   Q   E E +E E  E   E   Q  E E +E E E E
   |   | |  | |  |   |   |  | |  | | | |
   /   / /  / /  /   /   /  / /  / / / /

   ~~                    ~~~~~~~~~~~~~~
   H.           +Q       H       Q   Q
e|---------------------|-----------------|
B|---------------------|-----------------|
G|-4------------(4)\---|-4-------4---4---|
D|---------------------|-----------------|
A|---------------------|-----------------|
E|---------------------|-----------------|


         G5                            D
           Q.           E   +Q           Q
           |            |    |           |
           /            /    /           /

    a      Q.    a      E   +Q    a      Q
e|---------7------------7---(7)---------10----|
B|-10b12-(10)---10b12-(10)-(10)--13b15-(13)---|
G|--------------------------------------------|
D|--------------------------------------------|
A|--------------------------------------------|
E|--------------------------------------------|


              A                       B5
    +E          Q       E E E E E     Q  E E +E E E E
     |          |       | | | | |     |  | |  | | | |
     /          /       / / / / /     /  / /  / / / /

    +E   a      E   +H.               W
e|-(10)--------12--(12)-----------||------------------|
B|-(13)-15b17-(15)-(15)-----------||o-----------------|
G|--------------------------------||------------------|
D|--------------------------------||------------------|
A|--------------------------------||o-----------------|
E|--------------------------------||------------------|


   Q           E E       +E  E E E
   |           | |        |  | | |
   /           / /        /  / / /

                          ~~~
   E a     +Q    E  a    +H
e|----------------------------------|
B|----------------------------------|
G|---9b11==(9)---9r-9b11-(9)--------|
D|----------------------------------|
A|----------------------------------|
E|----------------------------------|


   G5         D              A                            B5
   Q.   E +Q  Q    +E          Q    E          E  E E E   Q  E E +E E E E
   |    |  |  |     |          |    |          |  | | |   |  | |  | | | |
   /    /  /  /     /          /    /          /  / / /   /  / /  / / / /

   W                E  a      +Q    E   a     +H          W
e|---------------|--------------------------------------|-----------------|
B|---------------|----10b12==(10)--10r-10b12-(10)-------|-----------------|
G|---------------|--------------------------------------|-----------------|
D|---------------|--------------------------------------|-----------------|
A|---------------|--------------------------------------|-----------------|
E|---------------|--------------------------------------|-----------------|


                                     G5         D
   Q           E E       +E  E E E   Q.   E +Q  Q
   |           | |        |  | | |   |    |  |  |
   /           / /        /  / / /   /    /  /  /

                          ~~~
   E a     +Q    E  a    +H          W
e|---------------------------------|---------------|
B|---------------------------------|---------------|
G|---9b11==(9)---9r-9b11-(9)-------|---------------|
D|---------------------------------|---------------|
A|---------------------------------|---------------|
E|---------------------------------|---------------|


 1.
             A
   +E          Q           E          E  E E E
    |          |           |          |  | | |
    /          /           /          /  / / /

                                      ~~~~
    E  a      +E   +S   S  E   a     +H
e|----------------------------------------------||
B|----10b12==(10)-(10)-10-10r-10b12-(10)-------o||
G|----------------------------------------------||
D|----------------------------------------------||
A|---------------------------------------------o||
E|----------------------------------------------||


  2.
                   A
         +E          Q           E          E  E            E            E
          |          |           |          |  |            |            |
          /          /           /          /  /            /            /

                                            |------------3------------|
   a     +E   a     +Q    a     +E   a     +Q     a     +Q     a     +Q
|--------------------------------------------------------------------------|
|-10b12-(10)-10b12-(10)--10b12-(10)-10b12-(10)---10b12-(10)---10b12-(10)---|
|--------------------------------------------------------------------------|
|--------------------------------------------------------------------------|
|--------------------------------------------------------------------------|
|--------------------------------------------------------------------------|


         B5
           Q   E E  +E  E    E   E     Q     E  E +E   E   E E
           |   | |   |  |    |   |     |     |  |  |   |   | |
           /   / /   /  /    /   /     /     /  /  /   /   / /

    a     +H        +E  S  S S S S S   S E. +Q    +E  +Q.
e|----------------------7------------|-------------------------|
B|-10b12-(10)------(10)---10-7---7---|-------------------------|
G|-----------------------------9---9-|-7-----------------------|
D|-----------------------------------|---9--(9)---(9)-(9)\-----|
A|-----------------------------------|-------------------------|
E|-----------------------------------|-------------------------|


   G5                        D              A
   Q.           E +Q         Q         +E   Q       E   E  E E E
   |            |  |         |          |   |       |   |  | | |
   /            /  /         /          /   /       /   /  / / /

   E  a    +Q.     S  S S  S S S S S    S S S S S S S S H
e|-----------------7-----------------|---------------------------|
B|-------------------10p7-10p7s6-7p6-|---------------------------|
G|----9b11-(9)-----------------------|--9-7-7--------------------|
D|-----------------------------------|--------9-----9---7\-------|
A|-----------------------------------|----------7-9---9----------|
E|-----------------------------------|---------------------------|


   B5
   Q        E     E +E     E     E E   Q        E  E +E  E E  E
   |        |     |  |     |     | |   |        |  |  |  | |  |
   /        /     /  /     /     / /   /        /  /  /  / /  /

               ~~~               ~~
   E  S  S  S  E.    S  S  S  S  Q     E  S  S  E  E  Q    E  E
e|-----------------------------------|------------------------------|
B|---10-12-12-12----10-12-12-12-12---|---10-12-12-10-12\-----15b17==|
G|-----------------------------------|------------------------------|
D|-----------------------------------|------------------------------|
A|-----------------------------------|------------------------------|
E|-----------------------------------|------------------------------|


  G5                        D
    Q.            E   +Q     Q
    |             |    |     |
    /             /    /     /

                             |--3--|
   +Q     E      +E   +Q     E  E  E
|---------------------------12--------|
|-(15)r--15b17==(15)-(15)r-----12-15--|
|-------------------------------------|
|-------------------------------------|
|-------------------------------------|
|-------------------------------------|


             A                                           
         +E  Q           E  E  E        E   E     
          |  |           |  |  |        |   |     
          /  /           /  /  /        /   /     

    a     +Q    E  a     +E  E  E       +E   S  S 
e|------------------------------------------------|
B|-17b19-(17)-----17b19-(17)---17pb19==(17)r17p15-|
G|------------------------------------------------|
D|------------------------------------------------|
A|------------------------------------------------|
E|------------------------------------------------|


 B5
          Q                  E             E  +E            E            E   E
          |                  |             |   |            |            |   |
          /                  /             /   /            /            /   /

    a     +E   S  a     +S   +S   S  a     +E   S  a     +E     S  a     +E   S  a     +S
e|------------17-----------------17------------17--------------17------------17------------|
B|-17b19-(17)----17b19-(17)-(17)----17b19-(17)----17b19-(17)------17b19-(17)----17b19-(17)-|
G|-----------------------------------------------------------------------------------------|
D|-----------------------------------------------------------------------------------------|
A|-----------------------------------------------------------------------------------------|
E|-----------------------------------------------------------------------------------------|


    Q                 E            E              +E  E   E      E
    |                 |            |               |  |   |      |
    /                 /            /               /  /   /      /

    +S   S  a     +E   S  a     +E     a      +S   +Q     +S   S  S  S
e|------17------------17-------------------------------------------------|
B|-(17)----17b19-(17)----17b19-(17)---17b19==(17)-(17)---(17)r17p15------|
G|------------------------------------------------------------------16---|
D|-----------------------------------------------------------------------|
A|-----------------------------------------------------------------------|
E|-----------------------------------------------------------------------|


  G5                                D            A
   Q.            E  +Q                Q      +E   Q     E  E     E     E          E
   |             |   |                |       |   |     |  |     |     |          |
   /             /   /                /       /   /     /  /     /     /          /

    E   S  S  +Q     +E   S  S  a     +Q      +E   E  E  E  S  S  S  S  E  a      +E
e|-----------------------------15b17-(15)--|-(15)-14-12-------12-14-12----------------|
B|-17--15-------------------12-------------|------------15-15----------15-17b19==(17)-|
G|--------16-(16)---(16)-14----------------|------------------------------------------|
D|-----------------------------------------|------------------------------------------|
A|-----------------------------------------|------------------------------------------|
E|-----------------------------------------|------------------------------------------|


  B5
    Q    E  E +E  E E     E    Q    E    E +E E  E     E
    |    |  |  |  | |     |    |    |    |  | |  |     |
    /    /  /  /  / /     /    /    /    /  / /  /     /

                               |---3---|
   +Q    E  E  E  E S  E.      Q  Q    Q    Q    S  S  E
|-------17------------------|------------------------------|
|-(17)-----17----17---17----|-17-17---17---17r==17-17p15---|
|---------------------------|------------------------------|
|---------------------------|------------------------------|
|---------------------------|------------------------------|
|---------------------------|------------------------------|


  G5                                  D
           Q.           E   +Q           Q
           |            |    |           |
           /            /    /           /

    a     +Q.    a     +E   +Q    a     +Q
e|-17b19-(17)---17b19-(17)-(17)--------------|
B|-------------------------------17b19-(17)--|
G|-------------------------------------------|
D|-------------------------------------------|
A|-------------------------------------------|
E|-------------------------------------------|


       A                                     G5                            D
   +E   Q   E         E  E    E    E           Q.           E   +Q           Q
    |   |   |         |  |    |    |           |            |    |           |
    /   /   /         /  /    /    /           /            /    /           /

                      |----3-----|
   +E   Q.     a     +Q     Q    Q      a     +Q.    a     +E   +Q    a     +Q
|-------------17b19-(17)---17---14---|-17b19-(17)---17b19-(17)-(17)---------------|
|-(17)-17----------------------------|-------------------------------17b19-(17)---|
|------------------------------------|--------------------------------------------|
|------------------------------------|--------------------------------------------|
|------------------------------------|--------------------------------------------|
|------------------------------------|--------------------------------------------|


       A
   +E   Q   E         E  E    E    E
    |   |   |         |  |    |    |
    /   /   /         /  /    /    /

                      |----3-----|
   +E   Q.     a     +Q     Q    Q
|-------------22b24-(22)---22---19---|
|-(17)-17----------------------------|
|------------------------------------|
|------------------------------------|
|------------------------------------|
|------------------------------------|


         G5                            D                  A
          Q.           E   +Q           Q      +E          H..
            |            |    |           |       |          |
           /            /    /           /       /          /

                                                                          ~~~~
    a     +Q.    a     +E   +Q    a      Q      +E   a      Q.     a      H
e|-------------------------------------------|----------------------------------|
B|-22b24-(22)---22b24-(22)-(22)---------15---|-(15)--------14------------10-----|
G|-------------------------------17b19-(17)--|-(17)-16b18-(16)----12b14-(12)----|
D|-------------------------------------------|----------------------------------|
A|-------------------------------------------|----------------------------------|
E|-------------------------------------------|----------------------------------|


   Q=100
   B5          A           G5
   Gtrs I, II
   TP          TP          TP
   W           W           W
e|-----------|-----------|-----------|
B|-----------|-----------|-3---------|
G|-4---------|-2---------|-0---------|
D|-4---------|-2---------|-0---------|
A|-2---------|-0---------|-----------|
E|-----------|-----------|-3---------|
 |
 | Gtr IV
 | H    H      H    H      H    H
e|------0----|------0----|------0----|
B|------0----|------0----|------0----|
G|------0----|------0----|------0----|
D|------0----|------0----|------0----|
A|------0----|------0----|------0----|
E|------0----|------0----|------0----|


   H.=H
   D/F#        E                         B5
   TP          TP
   W           W           +H.      Q    E  E Q  H
e|-----------|-----------|-------------|--------------*|
B|-3---------|-----------|-------------|--------------*|
G|-2---------|-1---------|-(1)---------|-4\-----------*|
D|-0---------|-2---------|-(2)---------|-4\-----------*|
A|-----------|-2---------|-(2)---------|-2\-----------*|
E|-2---------|-0---------|-(0)---------|--------------*|
|
 | H    H      H    H       H.      Q    W
e|------0----|------0----|----------0--|--------------*|
B|------0----|------0----|----------0--|--------------*|
G|------0----|------0----|----------0--|--------------*|
D|------0----|------0----|----------0--|--------------*|
A|------0----|------0----|----------0--|--------------*|
E|------0----|------0----|----------0--|--------------*|


Duration Legend
---------------
W - whole; H - half; Q - quarter; E - 8th; S - 16th; T - 32nd; X - 64th; a - acciaccatura
+ - note tied to previous; . - note dotted; .. - note double dotted
Uncapitalized letters represent notes that are staccato (1/2 duration)
Irregular groupings are notated above the duration line
Duration letters will always appear directly above the note/fret number it represents the
duration for.  Duration letters with no fret number below them represent rests.  Multi-
bar rests are notated in the form Wxn, where n is the number of bars to rest for.  Low
melody durations appear below the staff

Tablature Legend
----------------
 h   - hammer-on
 p   - pull-off
 b   - bend
 pb  - pre-bend
 r   - bend release (if no number after the r, then release immediately)
 /\  - slide into or out of (from/to "nowhere")
 s   - legato slide
 S   - shift slide
  - natural harmonic
[n]  - artificial harmonic
n(n) - tapped harmonic
 ~   - vibrato
 tr  - trill
 T   - tap
 TP  - trem. picking
 PM  - palm muting
\n/  - tremolo bar dip; n = amount to dip
 \n  - tremolo bar down
 n/  - tremolo bar up
/n\  - tremolo bar inverted dip
 =   - hold bend; also acts as connecting device for hammers/pulls
 <>  - volume swell (louder/softer)
 x   - on rhythm slash represents muted slash
 o   - on rhythm slash represents single note slash

Misc Legend
-----------
 |  - bar
||  - double bar
||o - repeat start
o|| - repeat end
*|  - double bar (ending)
 :  - bar (freetime)
 $  - Segno
 &  - Coda
Tempo markers -  = BPM(8/16=s8/s16), where s8 = swing 8ths, s16 = swing 16ths
Suggest correction
Creating personal tab
Creating personal tab
You can edit any tab online and save it as your Personal.

You can edit, replace or remove any tab part or add personal notes – all changes will be seen only by you.

Personal tabs can be accessed anytime from any device, even offline.
Learn more »
comments
print report bad tab
21 comments total. Showing first comments.
-1 reply
jackb. 20 Jul 27, 2006 05:33 AM

dude, pretty good 4 star.

-1 reply
redblade165 10 Aug 18, 2006 12:20 PM

vn

+4 reply
SGstriker 439 Aug 24, 2006 12:30 PM

This is outta the horribly incorrect Definitive AC/DC tab book. The For Those About To Rock tab in the book is close, except for one thing.
The intro.
The B-String is open, not 12th fret. Good tab though

guest
You may want to rate the tab now too:
select rating
Wanna post a correction for this tab? Suggest correction