Oops, an error
Loading. Please wait.

Furor Tab

version 2
version 2

Whole song

Interactive

8,682 views 12 this week
no commentswrite comment
1 2 3 4 5
accurate
x 5
add to favorites
launch autoscroll
font size
0
reset
how to read this tab
guitar tuner
Tab Pro tools
  • play this tab
  • loop segment
  • change instrument
  • show fretboard
  • metronome
×
Best way to learn
"Furor"
Autoscroll
slow
fast
+/-
esc
set tempo
stop
Contributor
AC/DC-The Furor
From: Ballbreaker (1995)
tabbed by jjhand
Standard Tuning

I used to love to play this song. The main riff & chorus are so different from most ACDC.
Written for Lead and Rhythm (Guitar 1 & Guitar 2 parts may be switched).
Note that most rhythm strums bass notes (A and D strings) then treble (G and B strings) 
a shuffle pattern.

Intro Riff - Guitar 1, play 10x
E|-------------------------------|
B|-------3--3--3------3-3---3----|
G|-2-2-2-2--2--2--2-2-2-2---2----|
D|-3-0-0________--3-0____---0----|
A|------------------------3------|
E|-------------------------------|

After playing Intro riff 2x, Guitar 2 comes in:

Intro Riff 2
E|------|-------|-----------|------|-----------|------|-----------|------|
B|-3----|-------|-3----3----|-3----|-3----3----|-3----|-3----3----|-3----|
G|-2----|-------|-2----0----|-0----|-2----0----|-0----|-2----0----|-0----|
D|-0----|-------|-0----0----|-0----|-0----0----|-0----|-0----0----|-0----|
A|------|-------|------3----|-1----|------3----|-1----|------3----|-1----|
E|------|-------|-----------|------|-----------|------|-----------|------|

Ending 1:
 | Gtr. 1
E|-3-3-3--3-3--3-3--3-|-3-3-3--3-3--3-3--3-|
B|-3-3-3--3-3--3-3--3-|-3-3-3--3-3--3-3--3-|
G|-0-0-0--0-0--0-0--0-|-0-0-0--0-0--0-0--0-|
D|-0--------0---------|-0--------0---------|
A|--------------------|--------------------|
E|-3--------3---------|-3--------3---------|
 |
 | Gtr. 2
E|--------------------|-------------------|
B|--------------------|-------------------|
G|--------------------|-------------------|
D|-5------------------|-5-5-5-5--5-5-5-5--|
A|-5------------------|-5-5-5-5--5-5-5-5--|
E|-3------------------|-3-3-3-3--3-3-3-3--| This strum rhythm is not same as Gtr. 1


Duo Intro/Verse Riff, play 3x
  Gtr. 1
E|---------------------------|----------------------------|
B|-3---3--3--3---3---3--3--3-|-3---3--3--3---3---3--3--3--|
G|-2---2--2--2---0---0--0--0-|-0---0--0--0---0---0--0--0--|
D|-0--0--0--0----0--0--0--0--|-0--0--0--0----0--0--0--0---|
A|---------------3--3--3--3--|-1--1--1--1----1--1--1--1---|
E|---------------------------|----------------------------|
 |
 |
E|---------------|------------|
B|-3-------------|-(3)--------|
G|-2-------------|-(2)--------|
D|-0-------------|-(0)--------|
A|-0-------------|-(0)--------|
E|---------------|------------|

Ending 2:
  Gtr. 1
E|-3---3--3--3--3---3--3--3-|-3---3--3--3--3---3--3--3-|
B|-3---3--3--3--3---3--3--3-|-3---3--3--3--3---3--3--3-|
G|-0---0--0--0--0---0--0--0-|-0---0--0--0--0---0--0--0-|
D|-0------------0-----------|-0------------0-----------|
A|--------------------------|--------------------------|
E|-3--3--3--3---3--3---3--3-|-3--3--3--3---3--3--3--3--|
 |
 |Gtr. 2
E|--------------------------|-----------------------|
B|--------------------------|-----------------------|
G|--------------------------|-----------------------|
D|-------5------------------|-5------------3----2---|
A|-------5------------------|-5------------3----2---|
E|-------3------------------|-3------------1----0---|


When Verse 1 Starts, play Intro/Verse Riff again but Guitar 2 plays Guitar 1 chords:

Guitar 2:
E|-----------|----------|-----------|----------|-3---------|-3---------|
B|-3----3----|-3--------|-3----3----|-3--------|-3---------|-3---------|
G|-2----0----|-0--------|-2----0----|-0--------|-0---------|-0---------|
D|-0----0----|-0--------|-0----0----|-0--------|-0---------|-0---------|
A|-0----3----|-1--------|-0----3----|-1--------|-----------|-----------|
E|-----------|----------|-----------|----------|-3---------|-3---------|


Chorus (play 2x):
  Guitar 1 (Chords are Dm, Bb, C, G)
E|-----5-5----6----6-6-6---|-8----8--8--8-------7----7-7-7----|
B|-6~--6-6-6--6--6-6-6-6---|-8--8-8--8--8-------8--8-8-8-8----|
G|-7~--7-7-7--7----7-7-7-7-|-9----9--9--9--9----7----7-7-7-7--|
D|-7~------7--8----8-8-8-8-|-10---10-10-10-10---9----9-9-9-9--|
A|-------------------------|----------------------------------|
E|-------------------------|----------------------------------|
 |
 |Guitar 2
E|-----------------------|-----------------------------|
B|-3---------------------|-----------------------------|
G|-2----------3----------|-5---------------------------|
D|-0----------3----------|-5---------------5-----------|
A|-0----------1----------|-3---------------5-----------|
E|-----------------------|-----------------3-----------|

Post-Chorus:
Guitar 1
E|-----------|----------------|--------------|---------------|
B|-----------|-------8b10r8-6-|--------------|---------------|
G|--7~~~~~---|-(7)------------|-5/7----------|-(7)-----------|
D|-----------|----------------|--------------|---------------|
A|-----------|----------------|--------------|---------------|
E|-----------|----------------|--------------|---------------|
meanwhile, Guitar 2 plays Intro riff 2x

Verse 2:
Play Verse Riffs as Before with Guitar 2 backing the chords


Chorus 2 is twice as long as the first (repeat riff 4x)


Pre-Solo - play bar 3x
  Guitar 1                           After repeats, end with
E|----------------------------|     |--------------------------|
B|-12b13r12--10----10-12------|     |-12b13r12--10----10--12\--|
G|-12b13r12--10----10-12------|     |-12b13r12--10----10--12\--|
D|--------------12------10h12-|     |--------------12----------|
A|----------------------------|     |--------------------------|
E|----------------------------|     |--------------------------|
 |                                                    ^   ^
 |Guitar 2 (softer)
E|----------------------------|     |-------------------------|
B|--3---3---3--------------3--|     |--3---3---3--------------|
G|--2---2---2----------0---2--|     |--2---2---2--------------|
D|--0---0---0------3---5---0--|     |--0---0---0------3---5---|
A|--0---0---0------3---5---0--|     |--0---0---0------3---5---|
E|-----------------1---3------|     |-----------------1---3---|
   Accent the last two chords played on each part (shown by ^)


Angus's Solo (bend below is a 3/4 step bend)
E|--10~~------10-----------|-10-----------------------------------------|
B|--13b15~~------13b14.5---|----13-10----10-------13--------------------|
G|-------------------------|----------12-----12b14--12b14r12-10-----10--|
D|-------------------------|------------------------------------12------|
A|-------------------------|--------------------------------------------|
E|-------------------------|--------------------------------------------|
Rhythm plays Duo Intro/Verse Riff 3x, as before

E|-----------------------------|---------------------------------|
B|--------12----10-------------|---------------------------------|
G|-----10-12----10-12b13r12-10-|-12~-10-10-----------------------|
D|-12--------12----------------|-----------12-10-----------------|
A|-----------------------------|-----------------12-11-10--------|
E|-----------------------------|--------------------------13/--0-|

E|---------------------------------|-----------------------------------------|
B|-13-----13-----13-------12-------|------------------10-----10~-------------|
G|---12b14--12b14--b14r12-12-10----|-10--12--10--12b14----12-----12b14r12-10-|
D|------------------------------12-|-----------------------------------------|
A|---------------------------------|-----------------------------------------|
E|---------------------------------|-----------------------------------------|

Lead (Angus):                                        hold bent note here
E|------------------------------------------|-15-----15----15----15------15~~-|--------|
B|------13-----13-----13-----13----------x--|---18b19___19____19______19------|--------|
G|-12b14--12b14--12b14--12b14--12b14r12--x--|---------------------------------|--------|
D|------------------------------------------|---------------------------------|--12~~--|
A|------------------------------------------|---------------------------------|--------|
E|------------------------------------------|---------------------------------|--------|
 |
 | Rhythm (Malcolm)
E|---------------------------|-----------------------------| Pick up with
B|-3---3--3--3--3---3--3--3--|-3---3--3--3--3---3--3--3--3-| Intro Riff 4x
G|-0---0--0--0--0---0--0--0--|-0---0--0--0--0---0--0--0--0-|
D|-0--0--0--0---0--0--0--0---|-0--0--0--0---0--0--0--0--0--|
A|-1--1--1--1---1--1--1--1---|-3--3--3--3---3--3--3--3--3--|
E|---------------------------|-----------------------------|

Note: last solo note above is during intro riff


Play Chorus 4x (repeat riff 8x total, but note changes at end)

Lead (comes in on 3rd full chorus)                  hold bend & keep picking
E|-----------------|-----------------------|-------------------------10---------------|
B|--------8b10~~~~-|-8b10r8p6--8b10r8-6----|-13b15~-b15-b15-b15-b15~----b15-10-13b15--|
G|--7~~~~~---------|--------------------7~-|------------------------------------------|
D|-----------------|-----------------------|------------------------------------------|
A|-----------------|-----------------------|------------------------------------------|
E|-----------------|-----------------------|------------------------------------------|

E|--------------10-------|---------------------------|-10---------------------------|
B|-------13b15~~---13-10-|-----------------10--------|-13b15---13----------------13-|
G|-rest------------------|-12b14r12-10-12~-10-12-10~-|-------------12b14r12---12b14-|
D|-----------------------|---------------------------|------------------------------|
A|-----------------------|---------------------------|------------------------------|
E|-----------------------|---------------------------|------------------------------|

E|--------------x\\\\\\--| pick scrape down entire neck
B|-(13)---------x\\\\\\--|
G|-(b14)--------x\\\\\\--|
D|-----------------------|
A|-----------------------|
E|-----------------------|


Ending: Play Pre-Solo Riff (both guitars end with F & G power chords)

Lead
E|--------------x\\\\\\--| another pick scrape, let open strings ring slightly
B|--------------x\\\\\\--|
G|--------------x\\\\\\--|
D|--2b3~~----------------|
A|-----------------------|
E|-----------------------|
 |
 | Rhythm                  Both guitars
E|-----------------------|----------|
B|--3--------------------|--3-------|
G|--2--------------------|--2-------|
D|--0--------------------|--0-------|
A|--0--------------------|--0-------|
E|-----------------------|----------|


Key:
___ - hold previous note
h   - hammer-on
p   - pull-off
b   - bend string
r   - release bend
/   - upward slide
\   - downward slide
~   - vibrato ('shake' fretted string to vary tone)
()  - hold notes in parenthesis
x   - muted note or pick scrape
^   - Accented note
comments
print report bad tab
I want to post or [tab]
guest
You may want to rate the tab now too:
select rating
Please do not post tabs as comments. Select "correction" instead!