Oops, an error
Loading. Please wait.

Get It Hot Tab

version 2
version 2

Solo

Whole song

4,253 views 3 this week
no commentswrite comment
1 2 3 4 5
accurate
x 3
add to favorites
launch autoscroll
font size
0
reset
how to read this tab
guitar tuner
Tab Pro tools
  • play this tab
  • loop segment
  • change instrument
  • show fretboard
  • metronome
Autoscroll
slow
fast
+/-
esc
set tempo
stop
Contributor
Title: Get It Hot (Unreleased Demo)
Artist: AC/DC
Album: Volts, Bonfire
Year: 1978
Composer: Bon Scott, Angus Young, Malcolm Young

This song is an unreleased version of “Get it Hot” from 1978, with different lyrics and
music.  This song is only available on the CD called ‘Volts’ which is a collection of
and greatest songs with Bon Scott.  ‘Volts’ is also included in the box-set dedicated to 
Scott called ‘Bonfire’.

Intro:
|-----------------|
|-----------------|
|--------4---4----|
|--4---4-2---2-4--| x4
|--2---2-------2--|
|-----------------|

|-------------------------------------------------------------|
|-------------------------------------------------------------|
|--------4---4-----------2---2--------------------------------|
|--4---4-2---2-4---2---2-0---0-2-----------2------------------|
|--2---2-------2---0---0-------0---2-------0-------2----------|
|----------------------------------0---------------0----------|

Verse:
|-----------------------------------------------------------------|
|-----------------------------------------------------------------|
|--------4---4-----------2---2------------------------------------|
|--4---4-2---2-4---2---2-0---0-2---------2---2-----------2---2----|
|--2---2-------2---0---0-------0---2---2-0---0-2---2---2-0---0-2--|
|----------------------------------0---0-------0---0---0-------0--|

Bridge:
|-----------------|
|-----------------|
|-----------------|
|--------2---2----| x4
|--2---2-0---0-2--|
|--0---0-------0--|


(The chorus is currently under interpretation)
comments
We did not receive enough feedback on this tab! Please rate:
print report bad tab
1 2 3 4 5
I want to post or [tab]
guest
You may want to rate the tab now too:
select rating
Please do not post tabs as comments. Select "correction" instead!