Oops, an error
Loading. Please wait.

Girls Got Rhythm Tab

version 3
version 3

Whole song

Interactive

7,690 views 9 this week
5 commentsread comments
1 2 3 4 5
accurate
x 7
add to favorites
launch autoscroll
font size
0
reset
how to read this tab
guitar tuner
Tab Pro tools
  • play this tab
  • loop segment
  • change instrument
  • show fretboard
  • metronome
×
Best way to learn
"Girls Got Rhythm"
Autoscroll
slow
fast
+/-
esc
set tempo
stop
AC/DC
Girls Got Rhythm(A.Young,M.Young,B.Scott)
Album:Highway To Hell 1979
Live In Madrid(No Bull)
Tab by Voytazz
This is the way that Ac/Dc played this song in Madrid in 1995
Intro Riff 1
E----------------------------------------------|
B----------------------------------------------|
G---7-----5-------------5----------------------|
D---7-----5------7-7------7--------------------|
A---5-----3--7-9-----9-------------------------|
E----------------------------------------------|

Intro Riff 2
E----------------------------------------------|
B----------------------------------------------|
G---7-----5------------------------------------|
D---7-----5------7-7-----9---------------------|
A---5-----3--7-9-----9---7---------------------|
E----------------------------------------------|

Verse
E----------------------------------------------|
B----------------------------------------------|
G---7-----5-------------5----------------------|
D---7-----5------7-7------7--------------------|
A---5-----3--7-9-----9-------------------------|
E----------------------------------------------|

Bridge 1

E--2---3----------------------------------------|
B--3---3----------------------------------------|
G--2---2-----------------5----------------------|
D--0---0----------7-7------7--------------------|
A-------------7-9-----9-------------------------|
E-----------------------------------------------|

Bridge 2

E|---------------------|
B|---------------------|
G|-4-4-4-4-4-----------|
D|-4-4-4-4-4-2-2-2-2-2-|
A|-2-2-2-2-2-2-2-2-2-2-|
E|-----------0-0-0-0-0-|

Chorus
E----------------------------------------------|
B----------------------------------------------|
G---7-----5-------------5----------------------|
D---7-----5------7-7------7--------------------|
A---5-----3--7-9-----9-------------------------|
E----------------------------------------------|

Solo 1

e|------------------5-----5-5----------------------5-5-----5--|
B|----------------5-------5-5----------------------5-5-----5--|
G|-7~~~--5~~~-7b9-----7b9-----7b9r7--7~~--5~~~-7b9-----7b9----|
D|------------------------------------------------------------|
A|------------------------------------------------------------|
E|------------------------------------------------------------|

 Solo 2
e|-8-------------5-5-----5-5-------8------------------------------5-5-----5--------|
B|-7b9--5--------5-5-----5-5-------7b9--5----7b8-5----------------5-5-----5--------|
G|--------5--7b9-----7b9-----7b9r7--------5--7b8-5-------5----7b9-----7b9----7b9r7-|
D|--------------------------------------------------7-7----7-----------------------|
A|---------------------------------------------------------------------------------|
E|---------------------------------------------------------------------------------|

e|------------------------------------------------17-17-------17-17-------17-17----------|
B|----------7-5---7-5---7-5---7-5---7-5b6---------17-17-------17-17-------17-17-17-------|
G|-5---7-5--7-5---7-5---------7-5---7-5b6---16b18-------16b18-------16b18-------17-16-14-|
D|---7----------7-----7-----7-----7------------------------------------------------------|
A|---------------------------------------------------------------------------------------|
E|---------------------------------------------------------------------------------------|

e|----------------------------------17-------------------------------20------20-|
B|-------17--16b18r16--14-16b18r16--17--16b18r16--17-17----14--------20------20-|
G|----14-17--16b18r16--14-16b18r16------16b18r16--14-14-16-----19b21----19b21---|
D|-16---------------------------------------------------------------------------|
A|------------------------------------------------------------------------------|
E|------------------------------------------------------------------------------|

e|-------20-20-------20-20-------20-20------20-20-------20-20-------20-20-20-20-20-20-|
B|-------20-20-------20-20-------20-20------20-20-------20-20-------20-20-20-20-20-20-|
G|-19b21-------19b21-------19b21-------19b21------19b21-------19b21-------------------|
D|------------------------------------------------------------------------------------|
A|------------------------------------------------------------------------------------|
E|------------------------------------------------------------------------------------|

Angus Outro
                             | Angus   plays  this   very     fast |
E-----------\x--------5h8----|-8p5-7p5-----------------------------|-----------------|
B-----------\x---------------|---------8p5-7p5---------------------|-----------------|
G--7---5----\x---------------|-----------------8p5-7p5-------------|-----------------|
D--7---5----\x---------------|---------------------------7p5----7~~|-----------------|
A--5---3----\x---------------|-------------------------------7-----|-----------------|
E-----------\x---------------|-------------------------------------|-----------------|
                                   |Angus plays  this using only one hand|
E----------------------------------|--------------------------------------|
B----------------------------------|--------------------------------------|
G---5h7--5h7--5h7--5h7--5h8--5h8---|-5h8--5h8--5h8---8~~------------------|
D----------------------------------|--------------------------------------|
A-7--------------------------------|--------------------------------------|
E----------------------------------|--------------------------------------|

E---\x-------------------|
B---\x-------------------|
G---\x-----4-------------|
D---\x-----4-------------|
A---\x-----2-------------|
E---\x-------------------|

How to play this:
Intro Riff 1. x3
Intro Riff 2. x1
Verse. x8
Bridge 1. x3
Bridge 2. x1
Chorus. x4
Solo 1
Verse. x8
Bridge 1. x3
Bridge 2. x1
Chorus. x4
Solo 2
Bridge 1. x3
Bridge 2. x1
Chorus. x7
Angus Outro
comments
print report bad tab
5 comments total. Showing first comments.
0 reply
Voytazz wrote on July 31 2005, 12:00 am

So what?

0 reply
trevonator wrote on May 1 2006, 08:21 pm

This isn't really it...it sounds almost exactly the same though, meh I guess it works.

0 reply
BBMrule wrote on June 24 2006, 11:15 am

mate,this is wrong.
the chords are there but they don't go with the song trevonator was rite.....it's wrong.

I want to post or [tab]
guest
You may want to rate the tab now too:
select rating
Please do not post tabs as comments. Select "correction" instead!