Oops, an error
Loading. Please wait.

Givin The Dog A Bone Bass Tab

2,983 views 6 this week
1 commentread comment
1 2 3 4 5
please rate
add to favorites
launch autoscroll
font size
0
reset
guitar tuner
Tab Pro tools
  • play this tab
  • loop segment
  • change instrument
  • show fretboard
  • metronome
×
Best way to learn
"Givin The Dog A Bone"
Autoscroll
slow
fast
+/-
esc
set tempo
stop
Contributor
Givin the dog a bone

Riff1    x10
Riff2    x3
Chorus x8
Riff1    x6
Riff2    x3
Chorus x8
   (Solo)
p1        x6
p2        x2
p3        x1

Riff1   x4
Chorusx14
Outro  x1

Riff 1
G:5-----7-----5-----7-----5---------|
D:--7-7---7-7---7-7---7-7---7-7-7-7-|
A:----------------------------------|
E:----------------------------------|

Riff 2
G:5-4---7-5-----7-----5-----|
D:----7-----7-7---7-7---7-7-|
A:--------------------------|
E:--------------------------|

Chorus
G:----------------|
D:--5-----7-5-----|
A:7---7-7-----7---|
E:----------------|

Solo p1
G:5------------------5-----7-5-----|
D:--7-7-7-7-7-7-7-7----7-7-----7---|
A:---------------------------------|
E:---------------------------------|

Solo p2
G:--------------|
D:5-----7-5-----|
A:--7-7-----7---|
E:--------------|

Solo p3
G:---------------------|
D:5-7--5-7--5-7--5-7-7-|
A:---------------------|
E:---------------------|

Outro
G:5-7--5-7--5-7---5-7--5-7--5---------|
D:----------------------------5-7---7-|
A:------------------------------------|
E:------------------------------------|
comments
We did not receive enough feedback on this tab! Please rate:
print report bad tab
1 2 3 4 5
1 comment total.
0 reply
playinbass1432 wrote on October 7 2008, 08:46 pm

Everything is an octave too high, but other than that...not bad.

I want to post or [tab]
guest
You may want to rate the tab now too:
select rating
Please do not post tabs as comments. Select "correction" instead!