Oops, an error
Loading. Please wait.

Go Zone Bass Tab

488 views 3 this week
no commentswrite comment
1 2 3 4 5
please rate
add to favorites
launch autoscroll
font size
0
reset
guitar tuner
Tab Pro tools
  • play this tab
  • loop segment
  • change instrument
  • show fretboard
  • metronome
×
Best way to learn
"Go Zone"
Autoscroll
slow
fast
+/-
esc
set tempo
stop
Contributor
Tabbed by: Vinny A.
Album: Blow Up Your Video
Song: Go Zone
Artist: AC/DC
Bassist: Cliff Williams

Intro
   A   G   E                           A   G   E   D     F   A   G   E
G|-----------------|-----------------|-----------------|-----------------|
D|-7---5---2-------|-----------------|-7---5---2-------|-----------------|
A|-----------------|-----------------|-------------5---|-3---------------|
E|-----------------|-----------------|-----------------|-----5---3---0---|

   A 
G|-----------------|-----------------|-----------------|-----------------|
D|-----------------|-----------------|-----------------|-----------------|
A|-----------------|-----------------|-----------------|-----------------|
E|-5-5-5-5-5-5-5-5-|-5-5-5-5-5-5-5-5-|-5-5-5-5-5-5-5-5-|-5-5-5-5-5-5-5-5-|

   A 
G|-----------------|-----------------|-----------------|-----------------|
D|-----------------|-----------------|-----------------|-----------------|
A|-----------------|-----------------|-----------------|-----------------|
E|-5-5-5-5-5-5-5-5-|-5-5-5-5-5-5-5-5-|-5-5-5-5-5-5-5-5-|-5-5-5-5-5-5-5-5-|

Verse 1

   A 
G|-----------------|-----------------|-----------------|-----------------|
D|-----------------|-----------------|-----------------|-----------------|
A|-----------------|-----------------|-----------------|-----------------|
E|-5-5-5-5-5-5-5-5-|-5-5-5-5-5-5-5-5-|-5-5-5-5-5-5-5-5-|-5-5-5-5-5-5-5-5-|

   A 
G|-----------------|-----------------|-----------------|-----------------|
D|-----------------|-----------------|-----------------|-----------------|
A|-----------------|-----------------|-----------------|-----------------|
E|-5-5-5-5-5-5-5-5-|-5-5-5-5-5-5-5-5-|-5-5-5-5-5-5-5-5-|-5-5-5-5-5-5-5-5-|

   C                               D
G|-----------------|-----------------|-----------------|-----------------|
D|-----------------|-----------------|-----------------|-----------------|
A|-----------------|---------------5-|-5-5-5-5-5-5-5-5-|-5-5-5-5-5-5-5-5-|
E|-8-8-8-8-8-8-8-8-|-8-8-8-8-8-8-8---|-----------------|-----------------|

   A D  C#D C#A
G|-----------------|-----------------|
D|-----------------|-----------------|
A|---5554-5-4------|-----------------|
E|-5----------5----|-----------------|

Chorus

   A 
G|-----------------|-----------------|-----------------|-----------------|
D|-----------------|-----------------|-----------------|-----------------|
A|-----------------|-----------------|-----------------|-----------------|
E|-5-5-5-5-5-5-5-5-|-5-5-5-5-5-5-5-5-|-5-5-5-5-5-5-5-5-|-5-5-5-5-5-5-5-5-|

   A                                                     G A C D
G|-----------------|-----------------|-----------------|-----------------|
D|-----------------|-----------------|-----------------|-----------------|
A|-----------------|-----------------|-----------------|-----3-5---------|
E|-5-5-5-5-5-5-5-5-|-5-5-5-5-5-5-5-5-|-5-5-5-5-5-5-5---|-3-5-------------|
   
   A   G   E   D     F   A   G   E
G|-----------------|-----------------|
D|-7---5---2-------|-----------------|
A|-------------5---|-3---------------|
E|-----------------|-----5---3---0---|

Bridge

   A 
G|-----------------|-----------------|-----------------|-----------------|
D|-----------------|-----------------|-----------------|-----------------|
A|-----------------|-----------------|-----------------|-----------------|
E|-5-5-5-5-5-5-5-5-|-5-5-5-5-5-5-5-5-|-5-5-5-5-5-5-5-5-|-5-5-5-5-5-5-5-5-|


Verse 2

   A 
G|-----------------|-----------------|-----------------|-----------------|
D|-----------------|-----------------|-----------------|-----------------|
A|-----------------|-----------------|-----------------|-----------------|
E|-5-5-5-5-5-5-5-5-|-5-5-5-5-5-5-5-5-|-5-5-5-5-5-5-5-5-|-5-5-5-5-5-5-5-5-|

   A 
G|-----------------|-----------------|-----------------|-----------------|
D|-----------------|-----------------|-----------------|-----------------|
A|-----------------|-----------------|-----------------|-----------------|
E|-5-5-5-5-5-5-5-5-|-5-5-5-5-5-5-5-5-|-5-5-5-5-5-5-5-5-|-5-5-5-5-5-5-5-5-|

   C                               D
G|-----------------|-----------------|-----------------|-----------------|
D|-----------------|-----------------|-----------------|-----------------|
A|-----------------|---------------5-|-5-5-5-5-5-5-5-5-|-5-5-5-5-5-5-5-5-|
E|-8-8-8-8-8-8-8-8-|-8-8-8-8-8-8-8---|-----------------|-----------------|

   A D  C#D C#A
G|-----------------|-----------------|
D|-----------------|-----------------|
A|---5554-5-4------|-----------------|
E|-5----------5----|-----------------|

Chorus

   A 
G|-----------------|-----------------|-----------------|-----------------|
D|-----------------|-----------------|-----------------|-----------------|
A|-----------------|-----------------|-----------------|-----------------|
E|-5-5-5-5-5-5-5-5-|-5-5-5-5-5-5-5-5-|-5-5-5-5-5-5-5-5-|-5-5-5-5-5-5-5-5-|

   A                                                     G A C D
G|-----------------|-----------------|-----------------|-----------------|
D|-----------------|-----------------|-----------------|-----------------|
A|-----------------|-----------------|---5554-5-4------|-----3-5---------|
E|-5-5-5-5-5-5-5-5-|-5-5-5-5-5-5-5-5-|-5---------------|-3-5-------------|

   A   G   E   D     F   A   G   E
G|-----------------|-----------------|
D|-7---5---2-------|-----------------|
A|-------------5---|-3---------------|
E|-----------------|-----5---3---0---|

Solo

   G A     G A       G A               G A G A G A       G A     G A
G|-----------------|-----------------|-----------------|-----------------|
D|-----------------|-----------------|-----------------|-----------------|
A|-----------------|-----------------|-----------------|-----------------|
E|-3h5-----3h5-----|-3h5-------------|-3h5-3h5-3h5-----|-3h5-----3h5-----|

   G A G A G A       G A     G A       G A G A G A       G A     G A
G|-----------------|-----------------|-----------------|-----------------|
D|-----------------|-----------------|-----------------|-----------------|
A|-----------------|-----------------|-----------------|-----------------|
E|-3h5-3h5-3h5-----|-3h5-----3h5-----|-3h5-3h5-3h5-----|-3h5-----3h5-----|

   G A G A F#G       F#G     F#G       F#G F#G C D       C D     C D
G|-----------------|-----------------|-----------------|-----------------|
D|-----------------|-----------------|-----------------|-----------------|
A|-----------------|-----------------|---------3h5-----|-3h5-----3h5-----|
E|-3h5-3h5-2h3-----|-2h3-----2h3-----|-2h3-2h3---------|-----------------|

   C D C D G A       G A     G A       G A G A B C       B C     C D
G|-----------------|-----------------|-----------------|-----------------|
D|-----------------|-----------------|-----------------|-----------------|
A|-3h5-3h5---------|-----------------|---------2h3-----|-2h3-----3h5-----|
E|---------3h5-----|-3h5-----3h5-----|-3h5-3h5---------|-----------------|

   C D C D G A         D  C#D C#A        D  C#D C#A        D  C#D C#A
G|-----------------|-----------------|-----------------|-----------------|
D|-----------------|-----------------|-----------------|-----------------|
A|-3h5-3h5---------|---5554-5-4------|---5554-5-4------|---5554-5-4------|
E|-----------------|------------5----|------------5----|------------5----|

            (Get yourself a ticket...)
G|-----------------|-----------------|
D|-----------------|-----------------|
A|-----------------|-----------------|
E|-----------------|-----------------|

Chorus/Outro

    A D  C#D C#A      
G|-----------------|-----------------|-----------------|-----------------|
D|-----------------|-----------------|-----------------|-----------------|
A|----5554-5-4-----|-----------------|-----------------|-----------------|
E|--5----------5-5-|-5-5-5-5-5-5-5-5-|-5-5-5-5-5-5-5-5-|-5-5-5-5-5-5-5-5-|

   A                                                                   G
G|-----------------|-----------------|-----------------|-----------------|
D|-----------------|-----------------|-----------------|-----------------|
A|-----------------|-----------------|-----------------|-----------------|
E|-5-5-5-5-5-5-5-5-|-5-5-5-5-5-5-5-5-|-5-5-5-5-5-5-5-5-|-5-5-5-5-5-5-5-3-|


    A D  C#D C#A                   G   A                               G
G|-----------------|-----------------|-----------------|-----------------|
D|-----------------|-----------------|-----------------|-----------------|
A|----5554-5-4-----|-----------------|-----------------|-----------------|
E|--5----------5-5-|-5-5-5-5-5-5-5-3-|-5-5-5-5-5-5-x-5-|-5-5-5-5-5-5-5-3-|

    A D  C#D C#A                   G   A  D  C#D C#      G A C D
G|-----------------|-----------------|-----------------|-----------------|
D|-----------------|-----------------|-----------------|-----------------|
A|----5554-5-4-----|-----------------|----5554-5-4-----|-----3-5---------|
E|--5----------5-5-|-5-5-5-5-5-5-5-3-|-5---------------|-3-5-------------|

                                       A   G   E   D     F   A   G   E
G|-----------------|-----------------|-----------------|-----------------|
D|-----------------|-----------------|-7---5---2-------|-----------------|
A|-----------------|-----------------|-------------5---|-3---------------|
E|-----------------|-----------------|-----------------|-----5---3---0---|

   A
G|-----------------|-----------------|
D|-----------------|-----------------|
A|-----------------|-----------------|
E|-5---------------|-----------------|

Throw in some of the hammer-ons for the freetime at the end if you feel so inclined.
comments
We did not receive enough feedback on this tab! Please rate:
print report bad tab
1 2 3 4 5
I want to post or [tab]
guest
You may want to rate the tab now too:
select rating
Please do not post tabs as comments. Select "correction" instead!