Oops, an error
Loading. Please wait.

Go Zone Tab

version 1
version 1

Solo

Whole song

2,847 views 3 this week
1 commentread comment
1 2 3 4 5
accurate
x 3
add to favorites
launch autoscroll
font size
0
reset
how to read this tab
guitar tuner
Tab Pro tools
  • play this tab
  • loop segment
  • change instrument
  • show fretboard
  • metronome
Autoscroll
slow
fast
+/-
esc
set tempo
stop
Contributor
Tuning: Standard

e--------------------|----------------|--------------|
B--------------------|----------------|--------------|
G--------------------|----------------|--------------|
D----7---5-----------|---7---5--------|--------------|
A------------7~~~~~~-|----------7--5--|--3-----------|
E--------------------|----------------|-----5--3--0--|

e-------------|---------|
B---3-3-3-----|--3-3----|
G---2-2-2-2---|--2-2-2--|
D---0-0-0-2---|--0-0-2--|
A---------0---|------0--|
E-------------|---------|

e-------------------------------------------|
B---2-3-3-----------------------------------|
G---2-2-2-2-------0-2-------0-2---0h2-0h2---|
D---0-0-0-2-------0-2-------0-2---0h2-0h2---|
A---------0-------0-0-------0-0---0---0-----|
E-------------------------------------------|

e------------------|-------------------|-------------------|-----------------------|
B------------------|-------------------|---8-8-8---8---8---|----8-8-8---8----------|
G---5-5-5---5--(5)~|~~--5-5-5---5--(7)~|~~-7-7-7---7--(7)~~|~---7-7-7---7--7--2----|
D---5-5-5---5-5-5--|----5-5-5---5-5-7--|---5-5-5-7-5-7-5---|----5-5-5-7-5--7--2----|
A---3-3-3---3-5-3--|----3-3-3---3-5-5--|---5-----5---5-----|----5-----5----5--0----|
E---------3---3----|----------3---3----|-------------------|-----------------------|

Notation used
(5)-lead note
~-vibrato
h-hammer on
comments
We did not receive enough feedback on this tab! Please rate:
print report bad tab
1 2 3 4 5
1 comment total.
0 reply
degot88 wrote on November 21 2010, 03:58 pm

i think this is more close:
e-------------------------------------------|
B-------------------------------------------|
G---2-2-2-2-------0-2-------0-2---0h2-0h2---|
D---4-4-4-2-------0-2-------0-2---0h2-0h2---|
A---0-0-0-0-------0-0-------0-0---0---0-----|
E-------------------------------------------|

I want to post or [tab]
guest
You may want to rate the tab now too:
select rating
Please do not post tabs as comments. Select "correction" instead!