Oops, an error
Loading. Please wait.

Go Zone tab

version 2
version 2

Whole song

by AC/DC
136 views 1 this week
no commentswrite comment
1 2 3 4 5
3 more votes to show rating
add to favorites
×
Save as Personal and add changes to this tab that will be seen only by you. Learn more ›
×
You can save this tab as Personal to edit and correct it or add notes. All changes will be seen only by you. Learn more »
launch autoscroll
font size
0
reset
how to read this tab
guitar tuner
edit
Autoscroll
slow
fast
+/-
esc
set tempo
stop
Author
Difficulty
-------------------------------------------------------------------------------
                             Go Zone - AC/DC
-------------------------------------------------------------------------------
Tabbed by: jothunder

Tuning: Standard

Disclaimer: This tab does not contain the guitar solo!

-------------------------------------------------------------------------------
    LEAD GUITAR

INTRO

e|---------------------|
B|---------------------|
G|---------------------|
D|-5/7---5-------------|
A|-----------5/7-------|
E|---------------------|

e|---------------------------------|
B|---------------------------------|
G|---------------------------------|
D|-7---5---------------------------|
A|---------7---5---3---0-----------|
E|-------------------------3---0---|

e|---------------------------------------|
B|---3-3-3-2-x-3--2-x--------------------|
G|---2-2-2-2-x-2--2-x--2-----------------| Play
D|---0-0-0-2-x-0--2-x--2-----------------| 4x
A|---------------------0-----------------|
E|---------------------------------------|


VERSE

e|-----------------------------------------------|
B|---3-3-3-2-x-----------------------------------|
G|---2-2-2-2-x-----0-2-x-----0-2-x---0-2-x-0-2-x-| Play
D|---0-0-0-2-x-----0-2-x-----0-2-x---0-2-x-0-2-x-|  4x
A|-----------------0-0-x-----0-0-x---0-0-x-0-0-x-|
E|-----------------------------------------------|

e|-------------------------------------------------|
B|---6-6-6-5-x-6--5-x--------6-6-6-5-x-6--5-x------|
G|---5-5-5-5-x-5--5-x--3/5---5-5-5-5-x-5--5-x--5/7-|
D|---3-3-3-5-x-3--5-x--------3-3-3-5-x-3--5-x------|
A|-------------------------------------------------|
E|-------------------------------------------------|

e|-----------------------------------------------|
B|---8-8-8-7-x-8--8-x--------8-8-8-7-x-8--8-x----|
G|---7-7-7-7-x-7--7-x--5/7---7-7-7-7-x-7--7-x--2-|
D|---5-5-5-7-x-5--5-x--------5-5-5-7-x-5--5-x--2-|
A|---------------------------------------------0-|
E|-----------------------------------------------|

e|---------------------------------------|
B|---3-3-3-2-x-3--2-x--------------------|
G|---2-2-2-2-x-2--2-x--2-----------------|
D|---0-0-0-2-x-0--2-x--2-----------------|
A|---------------------0-----------------|
E|---------------------------------------|


REFRAIN

e|---------------------------------------|
B|---3-3-3-2-x-3--2-x--------------------|
G|---2-2-2-2-x-2--2-x--2-----------------| Play
D|---0-0-0-2-x-0--2-x--2-----------------|  3x
A|---------------------0-----------------|
E|---------------------------------------|

e|-----------------------------------------------|
B|---3-3-3-2-x-3--2-x----------3-----------------|
G|---2-2-2-2-x-2--2-x----------2-----------------|
D|---0-0-0-2-x-0--2-x----------0-----------------|
A|-------------------------0-3-------------------|
E|-----------------------3-----------------------|

e|---------------------------------|
B|---------------------------------|
G|---------------------------------|
D|-7---5---------------------------|
A|---------7---5---3---0-----------|
E|-------------------------3---0---|

e|---------------------------------------|
B|---3-3-3-2-x-3--2-x--------------------|
G|---2-2-2-2-x-2--2-x--2-----------------| Play
D|---0-0-0-2-x-0--2-x--2-----------------|  2x
A|---------------------0-----------------|
E|---------------------------------------|


VERSE

e|-----------------------------------------------|
B|---3-3-3-2-x-----------------------------------|
G|---2-2-2-2-x-----0-2-x-----0-2-x---0-2-x-0-2-x-| Play
D|---0-0-0-2-x-----0-2-x-----0-2-x---0-2-x-0-2-x-|  4x
A|-----------------0-0-x-----0-0-x---0-0-x-0-0-x-|
E|-----------------------------------------------|

e|-------------------------------------------------|
B|---6-6-6-5-x-6--5-x--------6-6-6-5-x-6--5-x------|
G|---5-5-5-5-x-5--5-x--3/5---5-5-5-5-x-5--5-x--5/7-|
D|---3-3-3-5-x-3--5-x--------3-3-3-5-x-3--5-x------|
A|-------------------------------------------------|
E|-------------------------------------------------|

e|-----------------------------------------------|
B|---8-8-8-7-x-8--8-x--------8-8-8-7-x-8--8-x----|
G|---7-7-7-7-x-7--7-x--5/7---7-7-7-7-x-7--7-x--2-|
D|---5-5-5-7-x-5--5-x--------5-5-5-7-x-5--5-x--2-|
A|---------------------------------------------0-|
E|-----------------------------------------------|

e|---------------------------------------|
B|---3-3-3-2-x-3--2-x--------------------|
G|---2-2-2-2-x-2--2-x--2-----------------|
D|---0-0-0-2-x-0--2-x--2-----------------|
A|---------------------0-----------------|
E|---------------------------------------|


REFRAIN

e|---------------------------------------|
B|---3-3-3-2-x-3--2-x--------------------|
G|---2-2-2-2-x-2--2-x--2-----------------| Play
D|---0-0-0-2-x-0--2-x--2-----------------|  3x
A|---------------------0-----------------|
E|---------------------------------------|

e|-----------------------------------------------|
B|---3-3-3-2-x-3--2-x----------3-----------------|
G|---2-2-2-2-x-2--2-x----------2-----------------|
D|---0-0-0-2-x-0--2-x----------0-----------------|
A|-------------------------0-3-------------------|
E|-----------------------3-----------------------|

e|---------------------------------|
B|---------------------------------|
G|---------------------------------|
D|-7---5---------------------------|
A|---------7---5---3---0-----------|
E|-------------------------3---0---|


INTERLUDE (while Angus plays his solo)

e|-----------------------------------------------------------------|
B|-5-3-3-2-3-2-3-2-5-3-3-2-3-2-3-2-5-3-3-2-3-2-3-2-3-2-2-3-3-2-3-2-|
G|-2-2-2-2-2-2-2-2-2-2-2-2-2-2-2-2-2-2-2-2-2-2-2-2-2-2-2-2-2-2-2-2-| Play
D|-----------------------------------------------------------------|  4x
A|-----------------------------------------------------------------|
E|-----------------------------------------------------------------|

e|------------------------------------------|
B|------------------------------------------|
G|------------------------------------------|
D|-3-5-------3-5-------3-5---------3-5--3-5-|
A|-3-5-------3-5-------3-5---------3-5--3-5-|
E|-1-3-------1-3-------1-3---------1-3--1-3-|

e|------------------------------------------|
B|------------------------------------------|
G|-5-7-------5-7-------5-7---------5-7--5-7-|
D|-5-7-------5-7-------5-7---------5-7--5-7-|
A|-3-5-------3-5-------3-5---------3-5--3-5-|
E|------------------------------------------|

e|------------------------------------------|
B|------------------------------------------|
G|-0-2-------0-2-------0-2---------0-2--0-2-|
D|-0-2-------0-2-------0-2---------0-2--0-2-|
A|-0-0-------0-0-------0-0---------0-0--0-0-|
E|------------------------------------------|

e|---------------------------------------------------|
B|---------------------------------------------------|
G|-4-5-x-------4-5-x-------5-7-x---------5-7-x-5-7-x-|
D|-4-5-x-------4-5-x-------5-7-x---------5-7-x-5-7-x-|
A|-2-3-x-------2-3-x-------3-5-x---------3-5-x-3-5-x-|
E|---------------------------------------------------|

e|-----------------------|
B|---3-3-3-2-x-3--2-x----|
G|---2-2-2-2-x-2--2-x--2-| Play
D|---0-0-0-2-x-0--2-x--2-|  2x
A|---------------------0-|
E|-----------------------|

e|---------------------------------------|
B|---3-3-3-2-x-3--2-x--------------------|
G|---2-2-2-2-x-2--2-x--2-----------------|
D|---0-0-0-2-x-0--2-x--2-----------------|
A|---------------------0-----------------|
E|---------------------------------------|


REFRAIN

e|---------------------------------------|
B|---3-3-3-2-x-3--2-x--------------------|
G|---2-2-2-2-x-2--2-x--2-----------------| Play
D|---0-0-0-2-x-0--2-x--2-----------------|  3x
A|---------------------0-----------------|
E|---------------------------------------|

e|---------------------------------------|
B|---3-3-3-2-x-3--2-x--------------------|
G|---2-2-2-2-x-2--2-x--2-----------------|
D|---0-0-0-2-x-0--2-x--2-------------5---|
A|---------------------0-------------5---|
E|-----------------------------------3---|

e|---------------------------------------|
B|---3-3-3-2-x-3--2-x--------------------|
G|-2-2-2-2-2-x-2--2-x--2-----------------| Play
D|-2-0-0-0-2-x-0--2-x--2-------------5---|  3x
A|-0-------------------0-------------5---|
E|-----------------------------------3---|

e|-----------------------------------------------|
B|---3-3-3-2-x-3--2-x----------3-----------------|
G|-2-2-2-2-2-x-2--2-x----------2-----------------|
D|-2-0-0-0-2-x-0--2-x----------0-----------------|
A|-0-----------------------0-3-------------------|
E|-----------------------3-----------------------|

e|---------------------------------|
B|---------------------------------|
G|---------------------------------|
D|-7---5---------------------------|
A|---------7---5---3---0-----------|
E|-------------------------3---0---|

e|-----------------------------------------------------------------|
B|-----------------------------------------------------------------|
G|-----------------------------------------------------------------|
D|-7-7-7-7-7-7-7-7-7-7-7-7-7-7-7-7-7-7-7-7-7-7-7-7-7-7-7-7-7-7-7-7-|
A|-7-7-7-7-7-7-7-7-7-7-7-7-7-7-7-7-7-7-7-7-7-7-7-7-7-7-7-7-7-7-7-7-|
E|-5-5-5-5-5-5-5-5-5-5-5-5-5-5-5-5-5-5-5-5-5-5-5-5-5-5-5-5-5-5-5-5-|

e|-----------------|
B|-----------------|
G|-----------------|
D|-7-x-------------|
A|-7-x-------------|
E|-5-x-------------|

-------------------------------------------------------------------------------
    RYTHM GUITAR

INTRO

e|---------------------|
B|---------------------|
G|---------------------|
D|-5/7---5-------------|
A|-----------5/7-------|
E|---------------------|

e|---------------------------------|
B|---------------------------------|
G|---------------------------------|
D|-7---5---------------------------|
A|---------7---5---3---0-----------|
E|-------------------------3---0---|

e|---------------------------------------|
B|---------------------------------------|
G|---2-2-2-2-x-2--2-x--2-----------------| Play
D|---0-0-0-2-x-0--2-x--2-----------------|  4x
A|---0-0-0-0-x-0--0-x--0-----------------|
E|---------------------------------------|


VERSE

e|-----------------------------------------------|
B|-----------------------------------------------|
G|---2-2-2-2-x-----0-2-x-----0-2-x---0-2-x-0-2-x-| Play
D|---0-0-0-2-x-----0-2-x-----0-2-x---0-2-x-0-2-x-|  4x
A|---0-0-0-0-x-----0-0-x-----0-0-x---0-0-x-0-0-x-|
E|-----------------------------------------------|

e|---------------------------------------------|
B|---------------------------------------------|
G|---5-5-5-5-x-5--5-x--5---5-5-5-5-x-5--5-x--7-|
D|---3-3-3-5-x-3--5-x--5---3-3-3-5-x-3--5-x--5-|
A|---3-3-3-3-x-3--3-x--3---3-3-3-3-x-3--3-x--5-|
E|---------------------------------------------|

e|---------------------------------------------|
B|---------------------------------------------|
G|---7-7-7-7-x-7--7-x--7---7-7-7-7-x-7--7-x--2-|
D|---5-5-5-7-x-5--7-x--7---5-5-5-7-x-5--7-x--2-|
A|---5-5-5-5---5--5----5---5-5-5-5---5--5----0-|
E|---------------------------------------------|

e|---------------------------------------|
B|---------------------------------------|
G|---2-2-2-2-x-2--2-x--2-----------------|
D|---0-0-0-2-x-0--2-x--2-----------------|
A|---0-0-0-0-x-0--0-x--0-----------------|
E|---------------------------------------|


REFRAIN

e|---------------------------------------|
B|---------------------------------------|
G|---2-2-2-2-x-2--2-x--2-----------------| Play
D|---0-0-0-2-x-0--2-x--2-----------------|  3x
A|---0-0-0-0-x-0--0-x--0-----------------|
E|---------------------------------------|

e|-----------------------------------------------|
B|-----------------------------------------------|
G|---2-2-2-2-x-2--2-x----------2-----------------|
D|---0-0-0-2-x-0--2-x----------0-----------------|
A|---0-0-0-0-x-0--0-0------0-3-0-----------------|
E|-----------------------3-----------------------|

e|---------------------------------|
B|---------------------------------|
G|---------------------------------|
D|-7---5---------------------------|
A|---------7---5---3---0-----------|
E|-------------------------3---0---|

e|---------------------------------------|
B|---------------------------------------|
G|---2-2-2-2-x-2--2-x--2-----------------| Play
D|---0-0-0-2-x-0--2-x--2-----------------|  2x
A|---0-0-0-0-x-0--0-x--0-----------------|
E|---------------------------------------|


VERSE

e|-----------------------------------------------|
B|-----------------------------------------------|
G|---2-2-2-2-x-----0-2-x-----0-2-x---0-2-x-0-2-x-| Play
D|---0-0-0-2-x-----0-2-x-----0-2-x---0-2-x-0-2-x-|  4x
A|---0-0-0-0-x-----0-0-x-----0-0-x---0-0-x-0-0-x-|
E|-----------------------------------------------|

e|---------------------------------------------|
B|---------------------------------------------|
G|---5-5-5-5-x-5--5-x--5---5-5-5-5-x-5--5-x--7-|
D|---3-3-3-5-x-3--5-x--5---3-3-3-5-x-3--5-x--5-|
A|---3-3-3-3-x-3--3-x--3---3-3-3-3-x-3--3-x--5-|
E|---------------------------------------------|

e|---------------------------------------------|
B|---------------------------------------------|
G|---7-7-7-7-x-7--7-x--7---7-7-7-7-x-7--7-x--2-|
D|---5-5-5-7-x-5--7-x--7---5-5-5-7-x-5--7-x--2-|
A|---5-5-5-5---5--5----5---5-5-5-5---5--5----0-|
E|---------------------------------------------|

e|---------------------------------------|
B|---------------------------------------|
G|---2-2-2-2-x-2--2-x--2-----------------|
D|---0-0-0-2-x-0--2-x--2-----------------|
A|---0-0-0-0-x-0--0-x--0-----------------|
E|---------------------------------------|


REFRAIN

e|---------------------------------------|
B|---------------------------------------|
G|---2-2-2-2-x-2--2-x--2-----------------| Play
D|---0-0-0-2-x-0--2-x--2-----------------|  3x
A|---0-0-0-0-x-0--0-x--0-----------------|
E|---------------------------------------|

e|-----------------------------------------------|
B|-----------------------------------------------|
G|---2-2-2-2-x-2--2-x----------2-----------------|
D|---0-0-0-2-x-0--2-x----------0-----------------|
A|---0-0-0-0-x-0--0-0------0-3-0-----------------|
E|-----------------------3-----------------------|

e|---------------------------------|
B|---------------------------------|
G|---------------------------------|
D|-7---5---------------------------|
A|---------7---5---3---0-----------|
E|-------------------------3---0---|


INTERLUDE (while Angus plays his solo)

e|---------------------------------------------------|
B|---------------------------------------------------|
G|-0-2-x-------0-2-x-------0-2-x---------0-2-x-0-2-x-| Play
D|-0-2-x-------0-2-x-------0-2-x---------0-2-x-0-2-x-|  4x
A|-0-0-x-------0-0-x-------0-0-x---------0-0-x-0-0-x-|
E|---------------------------------------------------|

e|------------------------------------------|
B|------------------------------------------|
G|------------------------------------------|
D|-3-5-------3-5-------3-5---------3-5--3-5-|
A|-3-5-------3-5-------3-5---------3-5--3-5-|
E|-1-3-------1-3-------1-3---------1-3--1-3-|

e|------------------------------------------|
B|------------------------------------------|
G|-5-7-------5-7-------5-7---------5-7--5-7-|
D|-5-7-------5-7-------5-7---------5-7--5-7-|
A|-3-5-------3-5-------3-5---------3-5--3-5-|
E|------------------------------------------|

e|------------------------------------------|
B|------------------------------------------|
G|-0-2-------0-2-------0-2---------0-2--0-2-|
D|-0-2-------0-2-------0-2---------0-2--0-2-|
A|-0-0-------0-0-------0-0---------0-0--0-0-|
E|------------------------------------------|

e|---------------------------------------------------|
B|---------------------------------------------------|
G|-4-5-x-------4-5-x-------5-7-x---------5-7-x-5-7-x-|
D|-4-5-x-------4-5-x-------5-7-x---------5-7-x-5-7-x-|
A|-2-3-x-------2-3-x-------3-5-x---------3-5-x-3-5-x-|
E|---------------------------------------------------|

e|-----------------------|
B|-----------------------|
G|---2-2-2-2-x-2--2-x--2-| Play
D|---0-0-0-2-x-0--2-x--2-|  2x
A|---0-0-0-0-x-0--0-x--0-|
E|-----------------------|

e|---------------------------------------|
B|---------------------------------------|
G|---2-2-2-2-x-2--2-x--2-----------------|
D|---0-0-0-2-x-0--2-x--2-----------------|
A|---0-0-0-0-x-0--0-x--0-----------------|
E|---------------------------------------|


REFRAIN

e|---------------------------------------|
B|---------------------------------------|
G|---2-2-2-2-x-2--2-x--2-----------------| Play
D|---0-0-0-2-x-0--2-x--2-----------------|  3x
A|---0-0-0-0-x-0--0-x--0-----------------|
E|---------------------------------------|


e|---------------------------------------|
B|---------------------------------------|
G|---2-2-2-2-x-2--2-x--2-----------------|
D|---0-0-0-2-x-0--2-x--2-------------5---|
A|---0-0-0-0-x-0--0-x--0-------------5---|
E|-----------------------------------3---|


e|---------------------------------------|
B|---------------------------------------|
G|-2-2-2-2-2-x-2--2-x--2-----------------| Play
D|-2-0-0-0-2-x-0--2-x--2-------------5---|  3x
A|-0-0-0-0-0-x-0--0-x--0-------------5---|
E|-----------------------------------3---|

e|-----------------------------------------------|
B|-----------------------------------------------|
G|-2-2-2-2-2-x-2--2-x----------2-----------------|
D|-2-0-0-0-2-x-0--2-x----------0-----------------|
A|-0-0-0-0-0-x-0--0-x------0-3-0-----------------|
E|-----------------------3-----------------------|

e|---------------------------------|
B|---------------------------------|
G|---------------------------------|
D|-7---5---------------------------|
A|---------7---5---3---0-----------|
E|-------------------------3---0---|

e|-----------------------------------------------------------------|
B|-----------------------------------------------------------------|
G|-----------------------------------------------------------------|
D|-7-7-7-7-7-7-7-7-7-7-7-7-7-7-7-7-7-7-7-7-7-7-7-7-7-7-7-7-7-7-7-7-|
A|-7-7-7-7-7-7-7-7-7-7-7-7-7-7-7-7-7-7-7-7-7-7-7-7-7-7-7-7-7-7-7-7-|
E|-5-5-5-5-5-5-5-5-5-5-5-5-5-5-5-5-5-5-5-5-5-5-5-5-5-5-5-5-5-5-5-5-|

e|-----------------|
B|-----------------|
G|-----------------|
D|-7-x-------------|
A|-7-x-------------|
E|-5-x-------------|

************************************

| /   slide up
| \   slide down
| h   hammer-on
| p   pull-off
| ~   vibrato
| +   harmonic
| x   Mute note
| b   Bend
| pb  Pre-bend
| br  Bend release
| pbr Pre-bend release
| brb Bend release bend

************************************

            
            
Suggest correction
Creating personal tab
Creating personal tab
You can edit any tab online and save it as your Personal.

You can edit, replace or remove any tab part or add personal notes – all changes will be seen only by you.

Personal tabs can be accessed anytime from any device, even offline.
Learn more »
Give kudos to tab author, rate the tab!
1 2 3 4 5
comments
print report bad tab
guest
You may want to rate the tab now too:
select rating
Wanna post a correction for this tab? Suggest correction