Oops, an error
Loading. Please wait.

Gone Shootin Tab

version 3
version 3

Intro

Whole song

Interactive

29,829 views 162 this week
3 commentsread comments
1 2 3 4 5
accurate
x 10
add to favorites
launch autoscroll
font size
0
reset
how to read this tab
guitar tuner
Tab Pro tools
  • play this tab
  • loop segment
  • change instrument
  • show fretboard
  • metronome
Autoscroll
slow
fast
+/-
esc
set tempo
stop
Contributor
Difficulty
intermediate
GONE SHOOTIN'

 Guitar 1
E|----------|------------|
B|---7------|------------|
G|---6------|------------|
D|---4------|-------2----|
A|----------|---2-4------|
E|----------|------------| repeat

Riff 
(guitar 1)
E|----2---------------------------2---|
B|----2-----5--5--4---------------2---|
G|----------6--4--4---2-3----2-3------|
D|------------------------4-----------|
A|--x----x----------------------------|
E|------------------------------------|

(guitar 2)
Guitar 2 plays that opening chord a couple of times, then joins in with this...
E|----2-------------------------------|
B|----2-----5--5--4---2--5--7---------|
G|----------6--4--4---2--4--6---------|
D|-(4)---4---------------2-/4---------|
A|------------------------------------|
E|------------------------------------|

Pre Chorus 
(rythem adds a couple more strums)
E|----------------------------------------------------------------|
B|----------------------------------------------------------------|
G|---6-----------------------------------------------4------2-----|
D|---6-----------------------------------------------4------2-----|
A|---4-----------------------------------------------2------0-----|
E|----------------------------------------------------------------|
  "I stir my coffee with the same spoon.....to a different tune"


SOLO

Rythem                       REPEAT
E|-----------------------------------|
B|--5-/-7-7--7--7--6--/-7-7---5--7---| IT'S MOSTLY JUST THE F# CHORD
G|--4-/-6-6--6--6--4--/-6-6---4--6---| ON THE OUTRO BIT IT BECOMES 95%
D|--2-/-4-4--4--4--2--/-4-4-\-2--4---| JUST STRUMMING THAT F# CHORD WITH
A|-----------------------------------| MUTE'S IN BETWEEN
E|-----------------------------------|

     .      .  .  .                          .   . . .
|----2----------------------------------|----2----------------------------------------------------------------|
|----2------5--5--4------------0--------|--------5-4-2--------------------------------------------------------|
|-----------6--4--4--2h3----------4^(6)-|--------------2^(3)-2------------------------------------------------|
|--x-----x---------------4~~~~----------|----------------------4~~~~~~~~-----4-4------4-6^(8)----4-----4-4~~~~|
|---------------------------------------|--------------------------------4/6------6p4---------------6---------|
|---------------------------------------|---------------------------------------------------------------------|

|------------------------------------------------------------------------------------8^(12)--9^7--------------|
|---------------------7--7~~~~---7~~~~-9^(11)--r(9)---7~~~~~-7-10^(14)-r(10)--7---7--------------10^7~~~~--7--|
|-------------------6----------8--------------------9---------------------------8-----------------------------|
|-----4^(6)--4-6/8--------------------------------------------------------------------------------------------|
|-4/6---------------------------------------------------------------------------------------------------------|
|-------------------------------------------------------------------------------------------------------------|
          
|---------9--------9------------------------------------------------------------------------------------------|
|--9^(11)---9^(11)---9^(11)r(9)--7--7~~~~~--------7--------7-7-------7-10^7~~~~~~--7--11^7--7~~~~~-10^7--7-7--|
|------------------------------------------9^(11)---9^(11)-----9(11)-------------9----------------------------|
|-------------------------------------------------------------------------------------------------------------|
|-------------------------------------------------------------------------------------------------------------|
|-------------------------------------------------------------------------------------------------------------|
             
|-------------------------------------------------------------------------------------------------------------|
|--9^(11)-(11)^(12)---9^7---\------------x--------------------------------------------------------------------|
|-------------------------------13^(15)--x-11~~~-13^(15)-11-11~~~~~~~~13^(15)-11-11-11~~~~~~--------11-11-----|
|----------------------------------------x---------------------------------------------------11/13------------|
|-------------------------------------------------------------------------------------------------------------|
|-------------------------------------------------------------------------------------------------------------|

|---------------------------------------------------------------------------14--------------------------------|
|----------14--14------------------14----14----14--14------14-------14--14----14-14-----14-----14-------------|
|--13^(15)---13^(15)-r(13)-11------11-13^(15)--13--11---13^(15)-13^(15)----------11-13^(15)-13^(15)-13^(15)r13|
|-----------------------------13----------------------------------------------13------------------------------|
|-------------------------------------------------------------------------------------------------------------|
|-------------------------------------------------------------------------------------------------------------|

|------------------------------------------------------------------------------------------12-----------------|
|-14-----14-------14-----14-------14-----14--------14----14-----14----14-------14----14-14----17^(19)----~~~~~|
|-11-13^(15)r(13)-11-13^(15)r(13)-11--13(15)r(13)--11-13(15)r13-11-13(15)r(13)-11----11-11--------------------|
|---------------------------------------------------------------------------------13--------------------------|
|-------------------------------------------------------------------------------------------------------------|
|-------------------------------------------------------------------------------------------------------------|

|---------------------------------------------------14-17(19)-17--14-17------14-17----------------------------|
|--------(19)~~~~~~-------(19)~~~~~~~----(19)~~~~~~---------------------17(19(----17(19)-----17^14------------|
|--17(18)-----------17(18)-----------(18)----------------------------------------------------------16-14~~~~\-|
|-------------------------------------------------------------------------------------------------------------|
|-------------------------------------------------------------------------------------------------------------|
|-------------------------------------------------------------------------------------------------------------|

outro (second solo/ fake end))
|----2-------------------------------------2---------------------2--------------------------------------------|
|--7-2-7-7--5---2--4---5--4----------------2---5--5--4--2--------2-----------2(4)---4-----------2--x----------|
|--6---6-6-46---4--4---4--4--------------------6--4--4--2^3---3--------2-3-4-----4--4-2---------2--x----------|
|--4---4-4-4----4--4---6--4-2^4---------x----x--------------4------x-4------------------4-4~~~~----x----------|
|-(X)----0------2--2---2--2-------------x---------------------------------------------------------------------|
|-------------------------------------------------------------------------------------------------------------|

|-------------------------------------------------------------------------------------------------------------|
|------------2-----4-2--------------2--x-x----------2-----4--2--2----x-x-x-----------2-----4----------x-x-----|
|------2-3-4---2---4-2--------------2--x-x----2-3-4---2---4--2--2----x-x-x-----2-3-4---2---4--2-------x-x-----|
|--x-4-----------4--------4~~~~~-------x-x--4-----------2------------x-x-x---4-----------4------4~~~~-x-x-----|
|-------------------------------------------------------------------------------------------------------------|
|-------------------------------------------------------------------------------------------------------------|

|----2-----------------------------2----2--------------------------------------------------------------------|
|----2------5--5--4---------------------2------5--5--4--------2----------------------------------------------|
|-----------6--4--4--2h3-------2^3-------------6--4--4--2^3--------------------------------------------------|
|--x-----x---------------4~~~~-------x------x---------------4----x----4--4--2--4--4--2-4---4---4---2---------|
|---------------------------------------------------------------------4--4-----------------------------------|
|------------------------------------------------------------------------------------------------------------|
comments
print report bad tab
3 comments total.
0 reply
cam201 wrote on March 24 2006, 01:01 am

r u foriegn?

0 reply
80'smetaladdict wrote on November 30 2008, 09:00 pm

this tab is pretty darn good man the only thing is a few missing notes and notations to the solo.

0 reply
Maki_ wrote on February 8 2014, 02:35 pm

thanks man for this piece od tab i learn the solo perfectly very thanks to you man God bless you always

I want to post or [tab]
guest
You may want to rate the tab now too:
select rating
Please do not post tabs as comments. Select "correction" instead!