Oops, an error
Loading. Please wait.

Got You By The Balls Bass Tab

version 1
version 1

Whole song

Interactive

1,174 views 1 this week
2 commentsread comments
1 2 3 4 5
please rate
add to favorites
launch autoscroll
font size
0
reset
guitar tuner
Tab Pro tools
  • play this tab
  • loop segment
  • change instrument
  • show fretboard
  • metronome
×
Best way to learn
"Got You By The Balls"
Autoscroll
slow
fast
+/-
esc
set tempo
stop
Contributor
Tabbed by: Vinny A.
Album: The Razor's Edge
Song: Got You By The Balls
Artist: AC/DC
Bassist: Cliff Williams


 Intro (after 4 bars of rest)

   A D A   C   A       G D A D         A D A   C   A       G D A D
G|-----------------|-----------------|-----------------|-----------------|
D|-----------------|---5-------------|-----------------|---5-------------|
A|---5-----3-------|-----5---5-------|---5-----3-------|-----5---5-------|
E|-5---5-5-----5---|-5-----5---------|-5---5-5-----5---|-5-----5---------|

Verse 1

   A D A   C   A       G D A D         A D A   C   A       G D A D
G|-----------------|-----------------|-----------------|-----------------|
D|-----------------|---5-------------|-----------------|---5-------------|
A|---5-----3-------|-----5---5-------|---5-----3-------|-----5---5-------|
E|-5---5-5-----5---|-5-----5---------|-5---5-5-----5---|-5-----5---------|

   A D A   C   A       G D A D         A D A   C   A       G D A D
G|-----------------|-----------------|-----------------|-----------------|
D|-----------------|---5-------------|-----------------|---5-------------|
A|---5-----3-------|-----5---5-------|---5-----3-------|-----5---5-------|
E|-5---5-5-----5---|-5-----5---------|-5---5-5-----5---|-5-----5---------|

   A D A   C   A       G D A D         A D A   C   A       G D A D
G|-----------------|-----------------|-----------------|-----------------|
D|-----------------|---5-------------|-----------------|---5-------------|
A|---5-----3-------|-----5---5-------|---5-----3-------|-----5---5-------|
E|-5---5-5-----5---|-5-----5---------|-5---5-5-----5---|-5-----5---------|

   A D A   C   A       G D A D         A D A   C   A       G D A D
G|-----------------|-----------------|-----------------|-----------------|
D|-----------------|---5-------------|-----------------|---5-------------|
A|---5-----3-------|-----5---5-------|---5-----3-------|-----5---5-------|
E|-5---5-5-----5---|-5-----5---------|-5---5-5-----5---|-5-----5---------|

Pre-Chorus

   C                                   D
G|-----------------|-----------------|-----------------|-----------------|
D|-----------------|-----------------|-----------------|-----------------|
A|-3-3-3-3-3-3-3-3-|-3-3-3-3-3-3-3-3-|-5-5-5-5-5-5-5-5-|-5-5-5-5-5-5-5-5-|
E|-----------------|-----------------|-----------------|-----------------|

   C                                   D                 E
G|-----------------|-----------------|-----------------|-----------------|
D|-----------------|-----------------|-----------------|-----------------|
A|-3-3-3-3-3-3-3-3-|-3-3-3-3-3-3-3-3-|-5-5-5-5-5-5-5-5-|-7-7-7-7-7-7-7-7-|
E|-----------------|-----------------|-----------------|-----------------|

   E
G|-----------------|
D|-----------------|
A|(7)--------------|
E|-----------------|

Chorus  

   A D A   C   A       G F#E D         A D A   C   A       G F#E D
G|-----------------|-----------------|-----------------|-----------------|
D|-----------------|---5-4-----------|-----------------|---5-4-----------|
A|---5-----3-------|-------7-5-------|---5-----3-------|-------7-5-------|
E|-5---5-5-----5---|-5---------------|-5---5-5-----5---|-5---------------|

   A D A   C   A       G F#E D         A D A   C   A       G   D   A
G|-----------------|-----------------|-----------------|-----------------|
D|-----------------|---5-4-----------|-----------------|-----------------|
A|---5-----3-------|-------7-5-------|---5-----3-------|-------5---------|
E|-5---5-5-----5---|-5---------------|-5---5-5-----5---|-5-3-------5-----|

G|-----------------|-----------------|
D|-----------------|-----------------|
A|-----------------|-----------------|
E|-----------------|-----------------|

Verse 2

   A D A   C   A       G D A D         A D A   C   A       G D A D
G|-----------------|-----------------|-----------------|-----------------|
D|-----------------|---5-------------|-----------------|---5-------------|
A|---5-----3-------|-----5---5-------|---5-----3-------|-----5---5-------|
E|-5---5-5-----5---|-5-----5---------|-5---5-5-----5---|-5-----5---------|

   A D A   C   A       G D A D         A D A   C   A       G D A D
G|-----------------|-----------------|-----------------|-----------------|
D|-----------------|---5-------------|-----------------|---5-------------|
A|---5-----3-------|-----5---5-------|---5-----3-------|-----5---5-------|
E|-5---5-5-----5---|-5-----5---------|-5---5-5-----5---|-5-----5---------|

Pre-Chorus

   C                                   D
G|-----------------|-----------------|-----------------|-----------------|
D|-----------------|-----------------|-----------------|-----------------|
A|-3-3-3-3-3-3-3-3-|-3-3-3-3-3-3-3-3-|-5-5-5-5-5-5-5-5-|-5-5-5-5-5-5-5-5-|
E|-----------------|-----------------|-----------------|-----------------|

   C                                   D                 E
G|-----------------|-----------------|-----------------|-----------------|
D|-----------------|-----------------|-----------------|-----------------|
A|-3-3-3-3-3-3-3-3-|-3-3-3-3-3-3-3-3-|-5-5-5-5-5-5-5-5-|-7-7-7-7-7-7-7-7-|
E|-----------------|-----------------|-----------------|-----------------|
    
   E
G|-----------------|
D|-----------------|
A|(7)--------------|
E|-----------------|

Chorus  

   A D A   C   A       G F#E D         A D A   C   A       G F#E D
G|-----------------|-----------------|-----------------|-----------------|
D|-----------------|---5-4-----------|-----------------|---5-4-----------|
A|---5-----3-------|-------7-5-------|---5-----3-------|-------7-5-------|
E|-5---5-5-----5---|-5---------------|-5---5-5-----5---|-5---------------|

   A D A   C   A       G F#E D         A D A   C   A       G   D   A
G|-----------------|-----------------|-----------------|-----------------|
D|-----------------|---5-4-----------|-----------------|-----------------|
A|---5-----3-------|-------7-5-------|---5-----3-------|-------5---------|
E|-5---5-5-----5---|-5---------------|-5---5-5-----5---|-5-3-------5-----|

G|-----------------|-----------------|
D|-----------------|-----------------|
A|-----------------|-----------------|
E|-----------------|-----------------|

Solo

   A D A   C   A       D A   C   A     A D A   C   A       D A   C   A
G|-----------------|-----------------|-----------------|-----------------|
D|-----------------|-----------------|-----------------|-----------------|
A|---5-----3-------|---5-----3-------|---5-----3-------|---5-----3-------|
E|-5---5-5-----5---|-5---5-5-----5---|-5---5-5-----5---|-5---5-5-----5---|

   A D A   C   A       D A   C   A     A D A   C   A       D A   C   A
G|-----------------|-----------------|-----------------|-----------------|
D|-----------------|-----------------|-----------------|-----------------|
A|---5-----3-------|---5-----3-------|---5-----3-------|---5-----3-------|
E|-5---5-5-----5---|-5---5-5-----5---|-5---5-5-----5---|-5---5-5-----5---|

   A     D       G   D G D       E     G     D           E G E G A   D
G|-----------------|-----------------|-----------------|-----------------|
D|-----------------|-----------------|-----------------|-----------------|
A|-------5---------|-5---5-----------|-------5---------|-------------5---|
E|-5-------------3-|---3---------0---|-3---------------|-0-3-0-3-5-------|

   A     D       G   D G D       E     G     D           E G E G A   D
G|-----------------|-----------------|-----------------|-----------------|
D|-----------------|-----------------|-----------------|-----------------|
A|-------5---------|-5---5-----------|-------5---------|-------------5---|
E|-5-------------3-|---3---------0---|-3---------------|-0-3-0-3-5-------|

Bridge
    
   A
G|-----------------|-----------------|-----------------|-----------------|
D|-----------------|-----------------|-----------------|-----------------|
A|-----------------|-----------------|-----------------|-----------------|
E|-5---------------|-----------------|-----------------|-----------------|

Outro

   A D A   C   A       G F#E D         A D A   C   A       G F#E D
G|-----------------|-----------------|-----------------|-----------------|
D|-----------------|---5-4-----------|-----------------|---5-4-----------|
A|---5-----3-------|-------7-5-------|---5-----3-------|-------7-5-------|
E|-5---5-5-----5---|-5---------------|-5---5-5-----5---|-5---------------|

   A D A   C   A       G F#E D         A D A   C   A     E G E G D
G|-----------------|-----------------|-----------------|-----------------|
D|-----------------|---5-4-----------|-----------------|-----------------|
A|---5-----3-------|-------7-5-------|---5-----3-------|---------5-------|
E|-5---5-5-----5---|-5---------------|-5---5-5-----5---|-0-3-0-3---------|

   A D A   C   A       G F#E D         A D A   C   A     E G E G D
G|-----------------|-----------------|-----------------|-----------------|
D|-----------------|---5-4-----------|-----------------|-----------------|
A|---5-----3-------|-------7-5-------|---5-----3-------|---------5-------|
E|-5---5-5-----5---|-5---------------|-5---5-5-----5---|-0-3-0-3---------|

   A D A   C   A       G F#E D         A D A   C   A     E G E A D
G|-----------------|-----------------|-----------------|-----------------|
D|-----------------|---5-4-----------|-----------------|---5-------------|
A|---5-----3-------|-------7-5-------|---5-----3-------|-----5---5-------|
E|-5---5-5-----5---|-5---------------|-5---5-5-----5---|-5-----5---------|

                                       A D A
G|-----------------|-----------------|-----------------|-----------------|
D|-----------------|-----------------|-----------------|-----------------|
A|-----------------|-----------------|---5-------------|-----------------|
E|-----------------|-----------------|-5---5-5-5-------|-----------------|
comments
We did not receive enough feedback on this tab! Please rate:
print report bad tab
1 2 3 4 5
2 comments total.
0 reply
playinbass1432 wrote on March 31 2009, 06:33 pm

The second bit of the chorus actually goes:

G|-------------|
D|-4-5-4-------|
A|-------7-5---|
E|-------------|

Other than that it is perfect.

0 reply
Dback139 wrote on March 31 2009, 11:11 pm

sweet, correction noted.

I want to post or [tab]
guest
You may want to rate the tab now too:
select rating
Please do not post tabs as comments. Select "correction" instead!