Oops, an error
Loading. Please wait.

Guns For Hire Tab

version 1
version 1

Solo

Whole song

Interactive

1,264 views 3 this week
no commentswrite comment
1 2 3 4 5
please rate
add to favorites
launch autoscroll
font size
0
reset
how to read this tab
guitar tuner
Tab Pro tools
  • play this tab
  • loop segment
  • change instrument
  • show fretboard
  • metronome
×
Best way to learn
"Guns For Hire"
Autoscroll
slow
fast
+/-
esc
set tempo
stop
----------------------------------------------------------------------------
                        GUNS FOR HIRE SOLO - AC/DC
----------------------------------------------------------------------------

Tuning: E,A,D,G,B,E

         +
e|----------------------------|
B|----------------------------|
G|-9~~~~-----------7-9~~~-----|
D|-------5--------------------|
A|---------7~~~---------------|
E|----------------------------|

e|------------12------------------------------------------|
B|---------12----15p12--------15-12---12-------------12---|
G|-14b16--------------14b16--------14----14-12-------12b--|
D|---------------------------------------------14~~~------|
A|--------------------------------------------------------|
E|--------------------------------------------------------|

e|--------------------------------------------------------|
B|-15b17~~~-17p15---15b17--17p15---15b17---17p15---15b17--|
G|---------------16-------------16--------------16--------|
D|--------------------------------------------------------|
A|--------------------------------------------------------|
E|--------------------------------------------------------|

e|--------------------------------------|
B|-17p15-15b17~~-----17-17-20b22--22~~~-|
G|----------------19--------------------|
D|--------------------------------------|
A|--------------------------------------|
E|--------------------------------------|

e|-12-15-12----12-----------------------------------------|
B|----------15---15-12----12------------------------------|
G|---------------------14---14-12----12-------------------|
D|--------------------------------14---14-12----12--------|
A|-------------------------------------------14----12~~---|
E|--------------------------------------------------------|

       +
e|------------------------------------------|
B|------------------------------------------|
G|-12-12----------9-12-12-9-9~~~-7--7~~~----|
D|-------------11---------------------------|
A|------------------------------------------|
E|------------------------------------------|

    h p h p h p h p h p h p h p    Hold bend----|
e|-----------------------------------------------------|
B|-0-8-0-8-0-9-0-9-0-10-0-10-0-10-10b12~~~10--10-12~~~-|
G|-----------------------------------------------------|
D|-----------------------------------------------------|
A|-----------------------------------------------------|
E|-----------------------------------------------------|

e|------------------------------------------|
B|-17~~~--15-17~~~--15-17~~~---17-17--20b22-|
G|------------------------------------------|
D|------------------------------------------|
A|------------------------------------------|
E|------------------------------------------|

e|----------------------12-------12--12-10----10----10-12~~~-|
B|-20p17~~~-20-17~~12-15----12-15----------12----12----------|
G|-----------------------------------------------------------|
D|-----------------------------------------------------------|
A|-----------------------------------------------------------|
E|-----------------------------------------------------------|
comments
We did not receive enough feedback on this tab! Please rate:
print report bad tab
1 2 3 4 5
I want to post or [tab]
guest
You may want to rate the tab now too:
select rating
Please do not post tabs as comments. Select "correction" instead!